  0
SECTION
  2
HEADER
  9
$ACADVER
  1
AC1021
  9
$ACADMAINTVER
 70
    25
  9
$DWGCODEPAGE
  3
ANSI_1250
  9
$LASTSAVEDBY
  1
Administrator
  9
$INSBASE
 10
0.0
 20
0.0
 30
0.0
  9
$EXTMIN
 10
-0.2473757776743244
 20
-0.244665232653643
 30
0.0
  9
$EXTMAX
 10
210.0
 20
297.0
 30
0.0
  9
$LIMMIN
 10
0.0
 20
0.0
  9
$LIMMAX
 10
210.0
 20
297.0
  9
$ORTHOMODE
 70
     0
  9
$REGENMODE
 70
     1
  9
$FILLMODE
 70
     1
  9
$QTEXTMODE
 70
     0
  9
$MIRRTEXT
 70
     0
  9
$LTSCALE
 40
19.36
  9
$ATTMODE
 70
     1
  9
$TEXTSIZE
 40
0.2
  9
$TRACEWID
 40
0.05
  9
$TEXTSTYLE
  7
STANDARD
  9
$CLAYER
  8
0
  9
$CELTYPE
  6
BYLAYER
  9
$CECOLOR
 62
   256
  9
$CELTSCALE
 40
1.0
  9
$DISPSILH
 70
     0
  9
$DIMSCALE
 40
1.0
  9
$DIMASZ
 40
3.5
  9
$DIMEXO
 40
2.2
  9
$DIMDLI
 40
13.376
  9
$DIMRND
 40
0.0
  9
$DIMDLE
 40
0.0
  9
$DIMEXE
 40
6.336
  9
$DIMTP
 40
0.01
  9
$DIMTM
 40
0.01
  9
$DIMTXT
 40
3.5
  9
$DIMCEN
 40
3.168
  9
$DIMTSZ
 40
0.0
  9
$DIMTOL
 70
     1
  9
$DIMLIM
 70
     0
  9
$DIMTIH
 70
     1
  9
$DIMTOH
 70
     1
  9
$DIMSE1
 70
     0
  9
$DIMSE2
 70
     0
  9
$DIMTAD
 70
     0
  9
$DIMZIN
 70
     0
  9
$DIMBLK
  1

  9
$DIMASO
 70
     1
  9
$DIMSHO
 70
     1
  9
$DIMPOST
  1

  9
$DIMAPOST
  1

  9
$DIMALT
 70
     0
  9
$DIMALTD
 70
     2
  9
$DIMALTF
 40
25.4
  9
$DIMLFAC
 40
1.0
  9
$DIMTOFL
 70
     0
  9
$DIMTVP
 40
0.0
  9
$DIMTIX
 70
     0
  9
$DIMSOXD
 70
     0
  9
$DIMSAH
 70
     0
  9
$DIMBLK1
  1

  9
$DIMBLK2
  1

  9
$DIMSTYLE
  2
STANDARD
  9
$DIMCLRD
 70
     0
  9
$DIMCLRE
 70
     0
  9
$DIMCLRT
 70
     0
  9
$DIMTFAC
 40
1.0
  9
$DIMGAP
 40
0.09
  9
$DIMJUST
 70
     0
  9
$DIMSD1
 70
     0
  9
$DIMSD2
 70
     0
  9
$DIMTOLJ
 70
     1
  9
$DIMTZIN
 70
     0
  9
$DIMALTZ
 70
     0
  9
$DIMALTTZ
 70
     0
  9
$DIMUPT
 70
     0
  9
$DIMDEC
 70
     4
  9
$DIMTDEC
 70
     4
  9
$DIMALTU
 70
     2
  9
$DIMALTTD
 70
     2
  9
$DIMTXSTY
  7
STANDARD
  9
$DIMAUNIT
 70
     0
  9
$DIMADEC
 70
     0
  9
$DIMALTRND
 40
0.0
  9
$DIMAZIN
 70
     0
  9
$DIMDSEP
 70
    46
  9
$DIMATFIT
 70
     3
  9
$DIMFRAC
 70
     0
  9
$DIMLDRBLK
  1

  9
$DIMLUNIT
 70
     2
  9
$DIMLWD
 70
    -2
  9
$DIMLWE
 70
    -2
  9
$DIMTMOVE
 70
     0
  9
$DIMFXL
 40
1.0
  9
$DIMFXLON
 70
     0
  9
$DIMJOGANG
 40
0.7853981633974483
  9
$DIMTFILL
 70
     0
  9
$DIMTFILLCLR
 70
     0
  9
$DIMARCSYM
 70
     0
  9
$DIMLTYPE
  6

  9
$DIMLTEX1
  6

  9
$DIMLTEX2
  6

  9
$LUNITS
 70
     2
  9
$LUPREC
 70
     4
  9
$SKETCHINC
 40
0.1
  9
$FILLETRAD
 40
0.0
  9
$AUNITS
 70
     0
  9
$AUPREC
 70
     0
  9
$MENU
  1
.
  9
$ELEVATION
 40
0.0
  9
$PELEVATION
 40
0.0
  9
$THICKNESS
 40
0.0
  9
$LIMCHECK
 70
     0
  9
$CHAMFERA
 40
0.0
  9
$CHAMFERB
 40
0.0
  9
$CHAMFERC
 40
0.0
  9
$CHAMFERD
 40
0.0
  9
$SKPOLY
 70
     0
  9
$TDCREATE
 40
2458993.760514502
  9
$TDUCREATE
 40
2458993.760514502
  9
$TDUPDATE
 40
2458996.847183553
  9
$TDUUPDATE
 40
2458996.847183553
  9
$TDINDWG
 40
0.0025642014
  9
$TDUSRTIMER
 40
0.0025640162
  9
$USRTIMER
 70
     1
  9
$ANGBASE
 50
0.0
  9
$ANGDIR
 70
     0
  9
$PDMODE
 70
     3
  9
$PDSIZE
 40
8.0
  9
$PLINEWID
 40
0.0
  9
$SPLFRAME
 70
     0
  9
$SPLINETYPE
 70
     6
  9
$SPLINESEGS
 70
     8
  9
$HANDSEED
  5
7A9
  9
$SURFTAB1
 70
     6
  9
$SURFTAB2
 70
     6
  9
$SURFTYPE
 70
     6
  9
$SURFU
 70
     6
  9
$SURFV
 70
     6
  9
$UCSBASE
  2

  9
$UCSNAME
  2

  9
$UCSORG
 10
0.0
 20
0.0
 30
0.0
  9
$UCSXDIR
 10
1.0
 20
0.0
 30
0.0
  9
$UCSYDIR
 10
0.0
 20
1.0
 30
0.0
  9
$UCSORTHOREF
  2

  9
$UCSORTHOVIEW
 70
     0
  9
$UCSORGTOP
 10
0.0
 20
0.0
 30
0.0
  9
$UCSORGBOTTOM
 10
0.0
 20
0.0
 30
0.0
  9
$UCSORGLEFT
 10
0.0
 20
0.0
 30
0.0
  9
$UCSORGRIGHT
 10
0.0
 20
0.0
 30
0.0
  9
$UCSORGFRONT
 10
0.0
 20
0.0
 30
0.0
  9
$UCSORGBACK
 10
0.0
 20
0.0
 30
0.0
  9
$PUCSBASE
  2

  9
$PUCSNAME
  2

  9
$PUCSORG
 10
0.0
 20
0.0
 30
0.0
  9
$PUCSXDIR
 10
1.0
 20
0.0
 30
0.0
  9
$PUCSYDIR
 10
0.0
 20
1.0
 30
0.0
  9
$PUCSORTHOREF
  2

  9
$PUCSORTHOVIEW
 70
     0
  9
$PUCSORGTOP
 10
0.0
 20
0.0
 30
0.0
  9
$PUCSORGBOTTOM
 10
0.0
 20
0.0
 30
0.0
  9
$PUCSORGLEFT
 10
0.0
 20
0.0
 30
0.0
  9
$PUCSORGRIGHT
 10
0.0
 20
0.0
 30
0.0
  9
$PUCSORGFRONT
 10
0.0
 20
0.0
 30
0.0
  9
$PUCSORGBACK
 10
0.0
 20
0.0
 30
0.0
  9
$USERI1
 70
     0
  9
$USERI2
 70
     0
  9
$USERI3
 70
     0
  9
$USERI4
 70
     0
  9
$USERI5
 70
     0
  9
$USERR1
 40
0.0
  9
$USERR2
 40
0.0
  9
$USERR3
 40
0.0
  9
$USERR4
 40
0.0
  9
$USERR5
 40
0.0
  9
$WORLDVIEW
 70
     1
  9
$SHADEDGE
 70
     3
  9
$SHADEDIF
 70
    70
  9
$TILEMODE
 70
     1
  9
$MAXACTVP
 70
    64
  9
$PINSBASE
 10
0.0
 20
0.0
 30
0.0
  9
$PLIMCHECK
 70
     0
  9
$PEXTMIN
 10
1.000000000000000E+20
 20
1.000000000000000E+20
 30
1.000000000000000E+20
  9
$PEXTMAX
 10
-1.000000000000000E+20
 20
-1.000000000000000E+20
 30
-1.000000000000000E+20
  9
$PLIMMIN
 10
0.0
 20
0.0
  9
$PLIMMAX
 10
12.0
 20
9.0
  9
$UNITMODE
 70
     0
  9
$VISRETAIN
 70
     1
  9
$PLINEGEN
 70
     0
  9
$PSLTSCALE
 70
     1
  9
$TREEDEPTH
 70
  3020
  9
$CMLSTYLE
  2
Standard
  9
$CMLJUST
 70
     0
  9
$CMLSCALE
 40
1.0
  9
$PROXYGRAPHICS
 70
     1
  9
$MEASUREMENT
 70
     1
  9
$CELWEIGHT
370
    -1
  9
$ENDCAPS
280
     0
  9
$JOINSTYLE
280
     0
  9
$LWDISPLAY
290
     0
  9
$INSUNITS
 70
     4
  9
$HYPERLINKBASE
  1

  9
$STYLESHEET
  1

  9
$XEDIT
290
     1
  9
$CEPSNTYPE
380
     0
  9
$PSTYLEMODE
290
     1
  9
$FINGERPRINTGUID
  2
{75C66E76-FC1F-4FA9-8928-BE5F2D834835}
  9
$VERSIONGUID
  2
{6D6E2BC2-92FA-469B-9287-C98E5DBE03CD}
  9
$EXTNAMES
290
     1
  9
$PSVPSCALE
 40
0.0
  9
$OLESTARTUP
290
     0
  9
$SORTENTS
280
   127
  9
$INDEXCTL
280
     0
  9
$HIDETEXT
280
     1
  9
$XCLIPFRAME
290
     0
  9
$HALOGAP
280
     0
  9
$OBSCOLOR
 70
   257
  9
$OBSLTYPE
280
     0
  9
$INTERSECTIONDISPLAY
280
     0
  9
$INTERSECTIONCOLOR
 70
   257
  9
$DIMASSOC
280
     2
  9
$PROJECTNAME
  1

  9
$CAMERADISPLAY
290
     0
  9
$LENSLENGTH
 40
50.0
  9
$CAMERAHEIGHT
 40
0.0
  9
$STEPSPERSEC
 40
2.0
  9
$STEPSIZE
 40
6.0
  9
$3DDWFPREC
 40
2.0
  9
$PSOLWIDTH
 40
0.25
  9
$PSOLHEIGHT
 40
4.0
  9
$LOFTANG1
 40
1.570796326794896
  9
$LOFTANG2
 40
1.570796326794896
  9
$LOFTMAG1
 40
0.0
  9
$LOFTMAG2
 40
0.0
  9
$LOFTPARAM
 70
     7
  9
$LOFTNORMALS
280
     1
  9
$LATITUDE
 40
37.795
  9
$LONGITUDE
 40
-122.394
  9
$NORTHDIRECTION
 40
0.0
  9
$TIMEZONE
 70
 -8000
  9
$LIGHTGLYPHDISPLAY
280
     1
  9
$TILEMODELIGHTSYNCH
280
     1
  9
$CMATERIAL
347
737
  9
$SOLIDHIST
280
     1
  9
$SHOWHIST
280
     1
  9
$DWFFRAME
280
     2
  9
$DGNFRAME
280
     0
  9
$REALWORLDSCALE
290
     1
  9
$INTERFERECOLOR
 62
     1
  9
$INTERFEREOBJVS
345
759
  9
$INTERFEREVPVS
346
756
  9
$CSHADOW
280
     0
  9
$SHADOWPLANELOCATION
 40
0.0
  0
ENDSEC
  0
SECTION
  2
CLASSES
  0
CLASS
  1
ACDBDICTIONARYWDFLT
  2
AcDbDictionaryWithDefault
  3
ObjectDBX Classes
 90
        0
 91
        1
280
     0
281
     0
  0
CLASS
  1
MATERIAL
  2
AcDbMaterial
  3
ObjectDBX Classes
 90
     1153
 91
        3
280
     0
281
     0
  0
CLASS
  1
VISUALSTYLE
  2
AcDbVisualStyle
  3
ObjectDBX Classes
 90
     4095
 91
       16
280
     0
281
     0
  0
CLASS
  1
TABLESTYLE
  2
AcDbTableStyle
  3
ObjectDBX Classes
 90
     4095
 91
        1
280
     0
281
     0
  0
CLASS
  1
SCALE
  2
AcDbScale
  3
ObjectDBX Classes
 90
     1153
 91
       33
280
     0
281
     0
  0
CLASS
  1
MLEADERSTYLE
  2
AcDbMLeaderStyle
  3
ACDB_MLEADERSTYLE_CLASS
 90
     4095
 91
        1
280
     0
281
     0
  0
CLASS
  1
CELLSTYLEMAP
  2
AcDbCellStyleMap
  3
ObjectDBX Classes
 90
     1152
 91
        2
280
     0
281
     0
  0
CLASS
  1
DICTIONARYVAR
  2
AcDbDictionaryVar
  3
ObjectDBX Classes
 90
        0
 91
        3
280
     0
281
     0
  0
ENDSEC
  0
SECTION
  2
TABLES
  0
TABLE
  2
VPORT
  5
8
330
0
100
AcDbSymbolTable
 70
     1
  0
VPORT
  5
1F4
330
8
100
AcDbSymbolTableRecord
100
AcDbViewportTableRecord
  2
*ACTIVE
 70
     0
 10
0.0
 20
0.0
 11
1.0
 21
1.0
 12
57.40463181350233
 22
89.64503409474719
 13
0.0
 23
0.0
 14
1.0
 24
1.0
 15
0.0
 25
0.0
 16
0.0
 26
0.0
 36
1.0
 17
0.0
 27
0.0
 37
0.0
 40
180.5233353682447
 41
2.156626506024096
 42
50.0
 43
0.0
 44
0.0
 50
0.0
 51
0.0
 71
     0
 72
   100
 73
     1
 74
     1
 75
     0
 76
     0
 77
     0
 78
     0
281
     0
 65
     1
110
0.0
120
0.0
130
0.0
111
1.0
121
0.0
131
0.0
112
0.0
122
1.0
132
0.0
 79
     0
146
0.0
348
755
 60
     3
 61
     5
292
     1
282
     1
141
0.0
142
0.0
 63
   250
421
  3355443
  0
ENDTAB
  0
TABLE
  2
LTYPE
  5
5
330
0
100
AcDbSymbolTable
 70
     7
  0
LTYPE
  5
14
330
5
100
AcDbSymbolTableRecord
100
AcDbLinetypeTableRecord
  2
BYBLOCK
 70
     0
  3

 72
    65
 73
     0
 40
0.0
  0
LTYPE
  5
15
330
5
100
AcDbSymbolTableRecord
100
AcDbLinetypeTableRecord
  2
BYLAYER
 70
     0
  3

 72
    65
 73
     0
 40
0.0
  0
LTYPE
  5
16
330
5
100
AcDbSymbolTableRecord
100
AcDbLinetypeTableRecord
  2
CONTINUOUS
 70
     0
  3
Solid line
 72
    65
 73
     0
 40
0.0
  0
LTYPE
  5
1F5
330
5
100
AcDbSymbolTableRecord
100
AcDbLinetypeTableRecord
  2
CENTER
 70
     0
  3
____ _ ____ _ ____ _ ____ _ ____ _ ____ _ ____
 72
    65
 73
     4
 40
0.6
 49
0.375
 74
     0
 49
-0.075
 74
     0
 49
0.075
 74
     0
 49
-0.075
 74
     0
  0
LTYPE
  5
1F6
330
5
100
AcDbSymbolTableRecord
100
AcDbLinetypeTableRecord
  2
HIDDEN
 70
     0
  3
- - - - - - - - - - - - - - - - - - - -
 72
    65
 73
     2
 40
0.2
 49
0.1
 74
     0
 49
-0.1
 74
     0
  0
LTYPE
  5
1F7
330
5
100
AcDbSymbolTableRecord
100
AcDbLinetypeTableRecord
  2
PHANTOM
 70
     0
  3
_____ _ _ _____ _ _ _____ _ _ _____
 72
    65
 73
     6
 40
0.8
 49
0.45
 74
     0
 49
-0.05
 74
     0
 49
0.1
 74
     0
 49
-0.05
 74
     0
 49
0.1
 74
     0
 49
-0.05
 74
     0
  0
LTYPE
  5
1F8
330
5
100
AcDbSymbolTableRecord
100
AcDbLinetypeTableRecord
  2
DOT
 70
     0
  3
. . . . . . . . . . . . . . . . . . . .
 72
    65
 73
     2
 40
0.2
 49
0.1
 74
     0
 49
-0.1
 74
     0
  0
LTYPE
  5
1F9
330
5
100
AcDbSymbolTableRecord
100
AcDbLinetypeTableRecord
  2
DASHED
 70
     0
  3
- - - - - - - - - - - - - - - - - - - -
 72
    65
 73
     2
 40
0.2
 49
0.1
 74
     0
 49
-0.1
 74
     0
  0
ENDTAB
  0
TABLE
  2
LAYER
  5
2
330
0
100
AcDbSymbolTable
 70
     4
  0
LAYER
  5
10
102
{ACAD_XDICTIONARY
360
794
102
}
330
2
100
AcDbSymbolTableRecord
100
AcDbLayerTableRecord
  2
0
 70
     0
 62
     7
  6
CONTINUOUS
370
    -3
390
F
347
747
  0
LAYER
  5
1FA
102
{ACAD_XDICTIONARY
360
796
102
}
330
2
100
AcDbSymbolTableRecord
100
AcDbLayerTableRecord
  2
DEFAULT_1
 70
     0
 62
     7
  6
CENTER
370
    -3
390
F
347
747
  0
LAYER
  5
1FB
102
{ACAD_XDICTIONARY
360
798
102
}
330
2
100
AcDbSymbolTableRecord
100
AcDbLayerTableRecord
  2
DEFAULT_2
 70
     0
 62
     8
  6
HIDDEN
370
    -3
390
F
347
747
  0
LAYER
  5
1FC
102
{ACAD_XDICTIONARY
360
79A
102
}
330
2
100
AcDbSymbolTableRecord
100
AcDbLayerTableRecord
  2
DEFAULT_3
 70
     0
 62
     7
  6
PHANTOM
370
    -3
390
F
347
747
  0
ENDTAB
  0
TABLE
  2
STYLE
  5
3
330
0
100
AcDbSymbolTable
 70
     2
  0
STYLE
  5
11
330
3
100
AcDbSymbolTableRecord
100
AcDbTextStyleTableRecord
  2
STANDARD
 70
     0
 40
0.0
 41
0.85
 50
0.0
 71
     0
 42
0.2
  3
txt
  4

  0
STYLE
  5
1FD
330
3
100
AcDbSymbolTableRecord
100
AcDbTextStyleTableRecord
  2
TEXTSTYLE_1
 70
     0
 40
0.0
 41
0.8
 50
0.0
 71
     0
 42
0.2
  3
gdt
  4

  0
ENDTAB
  0
TABLE
  2
VIEW
  5
6
330
0
100
AcDbSymbolTable
 70
     0
  0
ENDTAB
  0
TABLE
  2
UCS
  5
7
330
0
100
AcDbSymbolTable
 70
     0
  0
ENDTAB
  0
TABLE
  2
APPID
  5
9
330
0
100
AcDbSymbolTable
 70
     2
  0
APPID
  5
1FE
330
9
100
AcDbSymbolTableRecord
100
AcDbRegAppTableRecord
  2
ACAD
 70
     0
  0
APPID
  5
787
330
9
100
AcDbSymbolTableRecord
100
AcDbRegAppTableRecord
  2
ACAD_MLEADERVER
 70
     0
  0
ENDTAB
  0
TABLE
  2
DIMSTYLE
  5
A
330
0
100
AcDbSymbolTable
 70
     2
100
AcDbDimStyleTable
 71
     0
  0
DIMSTYLE
105
201
330
A
100
AcDbSymbolTableRecord
100
AcDbDimStyleTableRecord
  2
STANDARD
 70
     0
 41
3.5
 47
0.01
 48
0.01
 71
     1
 73
     0
 74
     0
 77
     1
 78
     8
140
3.5
271
     2
272
     2
284
     8
340
11
  0
ENDTAB
  0
TABLE
  2
BLOCK_RECORD
  5
1
330
0
100
AcDbSymbolTable
 70
     1
  0
BLOCK_RECORD
  5
1FF
330
1
100
AcDbSymbolTableRecord
100
AcDbBlockTableRecord
  2
*Model_Space
340
732
 70
     0
280
     1
281
     0
  0
BLOCK_RECORD
  5
200
330
1
100
AcDbSymbolTableRecord
100
AcDbBlockTableRecord
  2
*Paper_Space
340
733
 70
     0
280
     1
281
     0
  0
ENDTAB
  0
ENDSEC
  0
SECTION
  2
BLOCKS
  0
BLOCK
  5
20
330
1FF
100
AcDbEntity
  8
0
100
AcDbBlockBegin
  2
*Model_Space
 70
     0
 10
0.0
 20
0.0
 30
0.0
  3
*Model_Space
  1

  0
ENDBLK
  5
21
330
1FF
100
AcDbEntity
  8
0
100
AcDbBlockEnd
  0
BLOCK
  5
1C
330
200
100
AcDbEntity
 67
     1
  8
0
100
AcDbBlockBegin
  2
*Paper_Space
 70
     0
 10
0.0
 20
0.0
 30
0.0
  3
*Paper_Space
  1

  0
ENDBLK
  5
1D
330
200
100
AcDbEntity
 67
     1
  8
0
100
AcDbBlockEnd
  0
ENDSEC
  0
SECTION
  2
ENTITIES
  0
LWPOLYLINE
  5
203
330
1FF
100
AcDbEntity
  8
0
  6
Continuous
 62
   142
100
AcDbPolyline
 90
        2
 70
     0
 43
0.4999999847
 10
75.75036621089998
 20
1.537727355999999
 10
75.8510131836
 20
1.524070739699999
  0
LWPOLYLINE
  5
204
330
1FF
100
AcDbEntity
  8
0
  6
Continuous
 62
   142
100
AcDbPolyline
 90
        2
 70
     0
 43
0.4999999847
 10
77.4356384277
 20
0.0219650269
 10
77.54025268550001
 20
0.0
  0
LWPOLYLINE
  5
205
330
1FF
100
AcDbEntity
  8
0
  6
Continuous
 62
   142
100
AcDbPolyline
 90
        2
 70
     0
 43
0.4999999847
 10
77.54025268550001
 20
0.0
 10
77.63014221189997
 20
0.0218009949
  0
LWPOLYLINE
  5
206
330
1FF
100
AcDbEntity
  8
0
  6
Continuous
 62
   142
100
AcDbPolyline
 90
        2
 70
     0
 43
0.4999999847
 10
71.8255157471
 20
5.2356758118
 10
71.70262146
 20
5.2163734436
  0
LWPOLYLINE
  5
207
330
1FF
100
AcDbEntity
  8
0
  6
Continuous
 62
   142
100
AcDbPolyline
 90
        2
 70
     0
 43
0.4999999847
 10
67.0151519775
 20
6.1008262634
 10
67.25761413569999
 20
6.138446807899999
  0
LWPOLYLINE
  5
208
330
1FF
100
AcDbEntity
  8
0
  6
Continuous
 62
   142
100
AcDbPolyline
 90
        2
 70
     0
 43
0.4999999847
 10
74.2691650391
 20
2.895778656
 10
74.39857482909999
 20
2.9047470093
  0
LWPOLYLINE
  5
209
330
1FF
100
AcDbEntity
  8
0
  6
Continuous
 62
   142
100
AcDbPolyline
 90
        2
 70
     0
 43
0.4999999847
 10
73.24882507319998
 20
7.246974945099998
 10
73.11819458009998
 20
7.240196227999999
  0
LWPOLYLINE
  5
20A
330
1FF
100
AcDbEntity
  8
0
  6
Continuous
 62
   142
100
AcDbPolyline
 90
        2
 70
     0
 43
0.3500000019
 10
68.8960266113
 20
10.9182548523
 10
69.18943786619999
 20
10.9267997742
  0
LWPOLYLINE
  5
20B
330
1FF
100
AcDbEntity
  8
0
  6
Continuous
 62
   142
100
AcDbPolyline
 90
        2
 70
     0
 43
0.3500000019
 10
69.18943786619999
 20
10.9267997742
 10
69.3090515137
 20
10.9302864075
  0
LWPOLYLINE
  5
20C
330
1FF
100
AcDbEntity
  8
0
  6
Continuous
 62
   142
100
AcDbPolyline
 90
        2
 70
     0
 43
0.4999999847
 10
63.20764160159999
 20
9.578140258799999
 10
63.3584289551
 20
9.578258514399999
  0
LWPOLYLINE
  5
20D
330
1FF
100
AcDbEntity
  8
0
  6
Continuous
 62
   142
100
AcDbPolyline
 90
        2
 70
     0
 43
0.4999999847
 10
62.15518188479999
 20
13.9861488342
 10
62.3217773438
 20
13.9582710266
  0
LWPOLYLINE
  5
20E
330
1FF
100
AcDbEntity
  8
0
  6
Continuous
 62
   142
100
AcDbPolyline
 90
        2
 70
     0
 43
0.4999999847
 10
57.2724533081
 20
20.2893180847
 10
56.9873809814
 20
20.3372001648
  0
LWPOLYLINE
  5
20F
330
1FF
100
AcDbEntity
  8
0
  6
Continuous
 62
   142
100
AcDbPolyline
 90
        2
 70
     0
 43
0.4999999847
 10
61.9253234863
 20
14.0400352478
 10
62.15518188479999
 20
13.9861488342
  0
LWPOLYLINE
  5
210
330
1FF
100
AcDbEntity
  8
0
  6
Continuous
 62
   142
100
AcDbPolyline
 90
        2
 70
     0
 43
0.4999999847
 10
50.4436645508
 20
21.3347511292
 10
50.675453186
 20
21.2781105042
  0
LWPOLYLINE
  5
211
330
1FF
100
AcDbEntity
  8
0
  6
Continuous
 62
   142
100
AcDbPolyline
 90
        2
 70
     0
 43
0.4999999847
 10
50.2243881226
 20
21.3917961121
 10
50.4436645508
 20
21.3347511292
  0
LWPOLYLINE
  5
212
330
1FF
100
AcDbEntity
  8
0
  6
Continuous
 62
   142
100
AcDbPolyline
 90
        2
 70
     0
 43
0.4999999847
 10
63.025604248
 20
9.638832092299999
 10
63.20764160159999
 20
9.578140258799999
  0
LWPOLYLINE
  5
213
330
1FF
100
AcDbEntity
  8
0
  6
Continuous
 62
   142
100
AcDbPolyline
 90
        2
 70
     0
 43
0.4999999847
 10
61.62535095209999
 20
14.1448402405
 10
61.9253234863
 20
14.0400352478
  0
LWPOLYLINE
  5
214
330
1FF
100
AcDbEntity
  8
0
  6
Continuous
 62
   142
100
AcDbPolyline
 90
        2
 70
     0
 43
0.4999999847
 10
44.8130874634
 20
26.3268089294
 10
44.6045532227
 20
26.414150238
  0
LWPOLYLINE
  5
215
330
1FF
100
AcDbEntity
  8
0
  6
Continuous
 62
   142
100
AcDbPolyline
 90
        2
 70
     0
 43
0.4999999847
 10
38.7657318115
 20
31.7364387512
 10
39.1487121582
 20
31.5684242249
  0
LWPOLYLINE
  5
216
330
1FF
100
AcDbEntity
  8
0
  6
Continuous
 62
   142
100
AcDbPolyline
 90
        2
 70
     0
 43
0.4999999847
 10
61.0640411377
 20
14.4045143127
 10
61.62535095209999
 20
14.1448402405
  0
LWPOLYLINE
  5
217
330
1FF
100
AcDbEntity
  8
0
  6
Continuous
 62
   142
100
AcDbPolyline
 90
        2
 70
     0
 43
0.4999999847
 10
55.2472686768
 20
16.784198761
 10
55.1558074951
 20
16.826877594
  0
LWPOLYLINE
  5
218
330
1FF
100
AcDbEntity
  8
0
  6
Continuous
 62
   142
100
AcDbPolyline
 90
        2
 70
     0
 43
0.4999999847
 10
55.1558074951
 20
16.826877594
 10
54.9239196777
 20
16.9351005554
  0
LWPOLYLINE
  5
219
330
1FF
100
AcDbEntity
  8
0
  6
Continuous
 62
   142
100
AcDbPolyline
 90
        2
 70
     0
 43
0.4999999847
 10
66.6759643555
 20
6.2602539063
 10
67.0116729736
 20
6.102474212599998
  0
LWPOLYLINE
  5
21A
330
1FF
100
AcDbEntity
  8
0
  6
Continuous
 62
   142
100
AcDbPolyline
 90
        2
 70
     0
 43
0.4999999847
 10
59.1010894775
 20
13.1403465271
 10
59.430519104
 20
12.9849891663
  0
LWPOLYLINE
  5
21B
330
1FF
100
AcDbEntity
  8
0
  6
Continuous
 62
   142
100
AcDbPolyline
 90
        2
 70
     0
 43
0.4999999847
 10
50.00631713869999
 20
21.4947166443
 10
50.2243881226
 20
21.3917961121
  0
LWPOLYLINE
  5
21C
330
1FF
100
AcDbEntity
  8
0
  6
Continuous
 62
   142
100
AcDbPolyline
 90
        2
 70
     0
 43
0.4999999847
 10
67.0116729736
 20
6.102474212599998
 10
67.0151519775
 20
6.1008262634
  0
LWPOLYLINE
  5
21D
330
1FF
100
AcDbEntity
  8
0
  6
Continuous
 62
   142
100
AcDbPolyline
 90
        2
 70
     0
 43
0.4999999847
 10
59.430519104
 20
12.9849891663
 10
59.43392944340001
 20
12.9833717346
  0
LWPOLYLINE
  5
21E
330
1FF
100
AcDbEntity
  8
0
  6
Continuous
 62
   142
100
AcDbPolyline
 90
        2
 70
     0
 43
0.4999999847
 10
71.6549987793
 20
5.239089965799998
 10
71.5271148682
 20
5.3000869751
  0
LWPOLYLINE
  5
21F
330
1FF
100
AcDbEntity
  8
0
  6
Continuous
 62
   142
100
AcDbPolyline
 90
        2
 70
     0
 43
0.4999999847
 10
71.70262146
 20
5.2163734436
 10
71.6549987793
 20
5.239089965799998
  0
LWPOLYLINE
  5
220
330
1FF
100
AcDbEntity
  8
0
  6
Continuous
 62
   142
100
AcDbPolyline
 90
        2
 70
     0
 43
0.4999999847
 10
38.4653320312
 20
31.9016151428
 10
38.7657318115
 20
31.7364387512
  0
LWPOLYLINE
  5
221
330
1FF
100
AcDbEntity
  8
0
  6
Continuous
 62
   142
100
AcDbPolyline
 90
        2
 70
     0
 43
0.4999999847
 10
44.6045532227
 20
26.414150238
 10
44.3949356079
 20
26.5336799622
  0
LWPOLYLINE
  5
222
330
1FF
100
AcDbEntity
  8
0
  6
Continuous
 62
   142
100
AcDbPolyline
 90
        2
 70
     0
 43
0.4999999847
 10
74.08428955079997
 20
3.0018806458
 10
74.2691650391
 20
2.895778656
  0
LWPOLYLINE
  5
223
330
1FF
100
AcDbEntity
  8
0
  6
Continuous
 62
   142
100
AcDbPolyline
 90
        2
 70
     0
 43
0.4999999847
 10
75.6484527588
 20
1.596862793
 10
75.75036621089998
 20
1.537727355999999
  0
LWPOLYLINE
  5
224
330
1FF
100
AcDbEntity
  8
0
  6
Continuous
 62
   142
100
AcDbPolyline
 90
        2
 70
     0
 43
0.4999999847
 10
73.11819458009998
 20
7.240196227999999
 10
72.931854248
 20
7.350044250499999
  0
LWPOLYLINE
  5
225
330
1FF
100
AcDbEntity
  8
0
  6
Continuous
 62
   142
100
AcDbPolyline
 90
        2
 70
     0
 43
0.4999999847
 10
62.8544158936
 20
9.7437362671
 10
63.025604248
 20
9.638832092299999
  0
LWPOLYLINE
  5
226
330
1FF
100
AcDbEntity
  8
0
  6
Continuous
 62
   142
100
AcDbPolyline
 90
        2
 70
     0
 43
0.4999999847
 10
62.85438537600001
 20
9.743759155299999
 10
62.8388061523
 20
9.753318786599999
  0
LWPOLYLINE
  5
227
330
1FF
100
AcDbEntity
  8
0
  6
Continuous
 62
   142
100
AcDbPolyline
 90
        2
 70
     0
 43
0.4999999847
 10
49.7900848389
 20
21.6279945374
 10
50.00631713869999
 20
21.4947166443
  0
LWPOLYLINE
  5
228
330
1FF
100
AcDbEntity
  8
0
  6
Continuous
 62
   142
100
AcDbPolyline
 90
        2
 70
     0
 43
0.4999999847
 10
77.32316589359999
 20
0.0921669006
 10
77.4356384277
 20
0.0219650269
  0
LWPOLYLINE
  5
229
330
1FF
100
AcDbEntity
  8
0
  6
Continuous
 62
   142
100
AcDbPolyline
 90
        2
 70
     0
 43
0.4999999847
 10
38.3597183228
 20
31.9781227112
 10
38.4653320312
 20
31.9016151428
  0
LWPOLYLINE
  5
22A
330
1FF
100
AcDbEntity
  8
0
  6
Continuous
 62
   142
100
AcDbPolyline
 90
        2
 70
     0
 43
0.4999999847
 10
44.3949356079
 20
26.5336799622
 10
43.98219299319999
 20
26.8376045227
  0
LWPOLYLINE
  5
22B
330
1FF
100
AcDbEntity
  8
0
  6
Continuous
 62
   142
100
AcDbPolyline
 90
        2
 70
     0
 43
0.3500000019
 10
62.85438537600001
 20
9.743759155299999
 10
62.8544158936
 20
9.7437362671
  0
LWPOLYLINE
  5
22C
330
1FF
100
AcDbEntity
  8
0
  6
Continuous
 62
   142
100
AcDbPolyline
 90
        2
 70
     0
 43
0.4999999847
 10
49.3687286377
 20
21.9516487122
 10
49.7900848389
 20
21.6279945374
  0
LWPOLYLINE
  5
22D
330
1FF
100
AcDbEntity
  8
0
  6
Continuous
 62
   142
100
AcDbPolyline
 90
        2
 70
     0
 43
0.3500000019
 10
69.3090515137
 20
10.9302864075
 10
69.66882324220001
 20
10.9955863953
  0
LWPOLYLINE
  5
22E
330
1FF
100
AcDbEntity
  8
0
  6
Continuous
 62
   142
100
AcDbPolyline
 90
        2
 70
     0
 43
0.4999999847
 10
59.43392944340001
 20
12.9833717346
 10
59.6734237671
 20
13.0180473328
  0
LWPOLYLINE
  5
22F
330
1FF
100
AcDbEntity
  8
0
  6
Continuous
 62
   142
100
AcDbPolyline
 90
        2
 70
     0
 43
0.4999999847
 10
55.48504638669999
 20
16.8172950745
 10
55.2472686768
 20
16.784198761
  0
LWPOLYLINE
  5
230
330
1FF
100
AcDbEntity
  8
0
  6
Continuous
 62
   142
100
AcDbPolyline
 90
        2
 70
     0
 43
0.4999999847
 10
62.3217773438
 20
13.9582710266
 10
62.4964752197
 20
13.973033905
  0
LWPOLYLINE
  5
231
330
1FF
100
AcDbEntity
  8
0
  6
Continuous
 62
   142
100
AcDbPolyline
 90
        2
 70
     0
 43
0.4999999847
 10
50.675453186
 20
21.2781105042
 10
50.8994827271
 20
21.297039032
  0
LWPOLYLINE
  5
232
330
1FF
100
AcDbEntity
  8
0
  6
Continuous
 62
   142
100
AcDbPolyline
 90
        2
 70
     0
 43
0.4999999847
 10
39.5637359619
 20
31.4633293152
 10
39.758026123
 20
31.4495811462
  0
LWPOLYLINE
  5
233
330
1FF
100
AcDbEntity
  8
0
  6
Continuous
 62
   142
100
AcDbPolyline
 90
        2
 70
     0
 43
0.4999999847
 10
35.3544998169
 20
34.9542045593
 10
35.2232971191
 20
34.9774589539
  0
LWPOLYLINE
  5
234
330
1FF
100
AcDbEntity
  8
0
  6
Continuous
 62
   142
100
AcDbPolyline
 90
        2
 70
     0
 43
0.4999999847
 10
35.2232971191
 20
34.9774589539
 10
35.0845413208
 20
35.00204086300001
  0
LWPOLYLINE
  5
235
330
1FF
100
AcDbEntity
  8
0
  6
Continuous
 62
   142
100
AcDbPolyline
 90
        2
 70
     0
 43
0.4999999847
 10
54.23931121829999
 20
32.665599823
 10
53.9217758179
 20
32.72613143920001
  0
LWPOLYLINE
  5
236
330
1FF
100
AcDbEntity
  8
0
  6
Continuous
 62
   142
100
AcDbPolyline
 90
        2
 70
     0
 43
0.4999999847
 10
45.2479629517
 20
26.226474762
 10
45.0306396484
 20
26.2732505798
  0
LWPOLYLINE
  5
237
330
1FF
100
AcDbEntity
  8
0
  6
Continuous
 62
   142
100
AcDbPolyline
 90
        2
 70
     0
 43
0.4999999847
 10
45.0306396484
 20
26.2732505798
 10
44.8130874634
 20
26.3268089294
  0
LWPOLYLINE
  5
238
330
1FF
100
AcDbEntity
  8
0
  6
Continuous
 62
   142
100
AcDbPolyline
 90
        2
 70
     0
 43
0.4999999847
 10
39.3412857056
 20
31.5194282532
 10
39.5637359619
 20
31.4633293152
  0
LWPOLYLINE
  5
239
330
1FF
100
AcDbEntity
  8
0
  6
Continuous
 62
   142
100
AcDbPolyline
 90
        2
 70
     0
 43
0.4999999847
 10
39.1487121582
 20
31.5684242249
 10
39.3412857056
 20
31.5194282532
  0
LWPOLYLINE
  5
23A
330
1FF
100
AcDbEntity
  8
0
  6
Continuous
 62
   142
100
AcDbPolyline
 90
        2
 70
     0
 43
0.4999999847
 10
29.8326187134
 20
39.9252891541
 10
29.7451400757
 20
39.9496574402
  0
LWPOLYLINE
  5
23B
330
1FF
100
AcDbEntity
  8
0
  6
Continuous
 62
   142
100
AcDbPolyline
 90
        2
 70
     0
 43
0.4999999847
 10
29.7451400757
 20
39.9496574402
 10
29.5553894043
 20
40.00250625609999
  0
LWPOLYLINE
  5
23C
330
1FF
100
AcDbEntity
  8
0
  6
Continuous
 62
   142
100
AcDbPolyline
 90
        2
 70
     0
 43
0.4999999847
 10
51.32109832760001
 20
25.4052772522
 10
51.49243927
 20
25.3542366028
  0
LWPOLYLINE
  5
23D
330
1FF
100
AcDbEntity
  8
0
  6
Continuous
 62
   142
100
AcDbPolyline
 90
        2
 70
     0
 43
0.4999999847
 10
16.1366577148
 20
52.1762733459
 10
16.3002243042
 20
52.1064109802
  0
LWPOLYLINE
  5
23E
330
1FF
100
AcDbEntity
  8
0
  6
Continuous
 62
   142
100
AcDbPolyline
 90
        2
 70
     0
 43
0.4999999847
 10
16.3002243042
 20
52.1064109802
 10
16.4391937256
 20
52.0470695496
  0
LWPOLYLINE
  5
23F
330
1FF
100
AcDbEntity
  8
0
  6
Continuous
 62
   142
100
AcDbPolyline
 90
        2
 70
     0
 43
0.4999999847
 10
32.0908050537
 20
37.8065681458
 10
31.7844238281
 20
37.951915741
  0
LWPOLYLINE
  5
240
330
1FF
100
AcDbEntity
  8
0
  6
Continuous
 62
   142
100
AcDbPolyline
 90
        2
 70
     0
 43
0.4999999847
 10
10.4864959717
 20
57.3847770691
 10
10.2802658081
 20
57.48362350459998
  0
LWPOLYLINE
  5
241
330
1FF
100
AcDbEntity
  8
0
  6
Continuous
 62
   142
100
AcDbPolyline
 90
        2
 70
     0
 43
0.4999999847
 10
10.5683059692
 20
57.3455696106
 10
10.4864959717
 20
57.3847770691
  0
LWPOLYLINE
  5
242
330
1FF
100
AcDbEntity
  8
0
  6
Continuous
 62
   142
100
AcDbPolyline
 90
        2
 70
     0
 43
0.4999999847
 10
54.6115112305
 20
32.4789619446
 10
54.23931121829999
 20
32.665599823
  0
LWPOLYLINE
  5
243
330
1FF
100
AcDbEntity
  8
0
  6
Continuous
 62
   142
100
AcDbPolyline
 90
        2
 70
     0
 43
0.4999999847
 10
48.70257568359999
 20
28.2553367615
 10
48.8345336914
 20
28.1882896423
  0
LWPOLYLINE
  5
244
330
1FF
100
AcDbEntity
  8
0
  6
Continuous
 62
   142
100
AcDbPolyline
 90
        2
 70
     0
 43
0.4999999847
 10
12.9674377441
 20
55.03969955439999
 10
13.060760498
 20
54.9899177551
  0
LWPOLYLINE
  5
245
330
1FF
100
AcDbEntity
  8
0
  6
Continuous
 62
   142
100
AcDbPolyline
 90
        2
 70
     0
 43
0.4999999847
 10
13.060760498
 20
54.9899177551
 10
13.2466278076
 20
54.89078140260001
  0
LWPOLYLINE
  5
246
330
1FF
100
AcDbEntity
  8
0
  6
Continuous
 62
   142
100
AcDbPolyline
 90
        2
 70
     0
 43
0.4999999847
 10
19.0710678101
 20
49.5619850159
 10
19.2521972656
 20
49.45952987670001
  0
LWPOLYLINE
  5
247
330
1FF
100
AcDbEntity
  8
0
  6
Continuous
 62
   142
100
AcDbPolyline
 90
        2
 70
     0
 43
0.4999999847
 10
7.721237182599998
 20
59.8160438538
 10
7.889305114699999
 20
59.71953201289998
  0
LWPOLYLINE
  5
248
330
1FF
100
AcDbEntity
  8
0
  6
Continuous
 62
   142
100
AcDbPolyline
 90
        2
 70
     0
 43
0.4999999847
 10
19.906036377
 20
53.40072250369999
 10
20.0722427368
 20
53.3042259216
  0
LWPOLYLINE
  5
249
330
1FF
100
AcDbEntity
  8
0
  6
Continuous
 62
   142
100
AcDbPolyline
 90
        2
 70
     0
 43
0.4999999847
 10
17.9050674438
 20
55.7328300476
 10
18.0265274048
 20
55.6612281799
  0
LWPOLYLINE
  5
24A
330
1FF
100
AcDbEntity
  8
0
  6
Continuous
 62
   142
100
AcDbPolyline
 90
        2
 70
     0
 43
0.4999999847
 10
51.1667556763
 20
25.4985313416
 10
51.32109832760001
 20
25.4052772522
  0
LWPOLYLINE
  5
24B
330
1FF
100
AcDbEntity
  8
0
  6
Continuous
 62
   142
100
AcDbPolyline
 90
        2
 70
     0
 43
0.4999999847
 10
51.1334686279
 20
25.5186576843
 10
51.1666641235
 20
25.4986000061
  0
LWPOLYLINE
  5
24C
330
1FF
100
AcDbEntity
  8
0
  6
Continuous
 62
   142
100
AcDbPolyline
 90
        2
 70
     0
 43
0.3500000019
 10
12.0479049683
 20
55.8987159729
 10
12.0493392944
 20
55.8977851868
  0
LWPOLYLINE
  5
24D
330
1FF
100
AcDbEntity
  8
0
  6
Continuous
 62
   142
100
AcDbPolyline
 90
        2
 70
     0
 43
0.4999999847
 10
55.15368652340001
 20
32.0988273621
 10
54.6115112305
 20
32.4789619446
  0
LWPOLYLINE
  5
24E
330
1FF
100
AcDbEntity
  8
0
  6
Continuous
 62
   142
100
AcDbPolyline
 90
        2
 70
     0
 43
0.4999999847
 10
18.7395477295
 20
49.8052482605
 10
19.0710678101
 20
49.5619850159
  0
LWPOLYLINE
  5
24F
330
1FF
100
AcDbEntity
  8
0
  6
Continuous
 62
   142
100
AcDbPolyline
 90
        2
 70
     0
 43
0.4999999847
 10
51.1666641235
 20
25.4986000061
 10
51.1667556763
 20
25.4985313416
  0
LWPOLYLINE
  5
250
330
1FF
100
AcDbEntity
  8
0
  6
Continuous
 62
   142
100
AcDbPolyline
 90
        2
 70
     0
 43
0.4999999847
 10
48.8345336914
 20
28.1882896423
 10
48.97966766359999
 20
28.0790290833
  0
LWPOLYLINE
  5
251
330
1FF
100
AcDbEntity
  8
0
  6
Continuous
 62
   142
100
AcDbPolyline
 90
        2
 70
     0
 43
0.4999999847
 10
34.9765548706
 20
35.08485794070001
 10
34.78477478030001
 20
35.2319297791
  0
LWPOLYLINE
  5
252
330
1FF
100
AcDbEntity
  8
0
  6
Continuous
 62
   142
100
AcDbPolyline
 90
        2
 70
     0
 43
0.4999999847
 10
35.0845413208
 20
35.00204086300001
 10
34.9765548706
 20
35.08485794070001
  0
LWPOLYLINE
  5
253
330
1FF
100
AcDbEntity
  8
0
  6
Continuous
 62
   142
100
AcDbPolyline
 90
        2
 70
     0
 43
0.4999999847
 10
25.1606369019
 20
44.0142707825
 10
24.8688583374
 20
44.2380409241
  0
LWPOLYLINE
  5
254
330
1FF
100
AcDbEntity
  8
0
  6
Continuous
 62
   142
100
AcDbPolyline
 90
        2
 70
     0
 43
0.4999999847
 10
22.32056427
 20
46.5933876038
 10
22.0311355591
 20
46.8153953552
  0
LWPOLYLINE
  5
255
330
1FF
100
AcDbEntity
  8
0
  6
Continuous
 62
   142
100
AcDbPolyline
 90
        2
 70
     0
 43
0.4999999847
 10
56.9873809814
 20
20.3372001648
 10
56.6678009033
 20
20.5829811096
  0
LWPOLYLINE
  5
256
330
1FF
100
AcDbEntity
  8
0
  6
Continuous
 62
   142
100
AcDbPolyline
 90
        2
 70
     0
 43
0.4999999847
 10
11.4622039795
 20
60.97082138060001
 10
11.3636322021
 20
61.0472679138
  0
LWPOLYLINE
  5
257
330
1FF
100
AcDbEntity
  8
0
  6
Continuous
 62
   142
100
AcDbPolyline
 90
        2
 70
     0
 43
0.4999999847
 10
11.3636322021
 20
61.0472679138
 10
11.1816253662
 20
61.1884117126
  0
LWPOLYLINE
  5
258
330
1FF
100
AcDbEntity
  8
0
  6
Continuous
 62
   142
100
AcDbPolyline
 90
        2
 70
     0
 43
0.4999999847
 10
18.4182662964
 20
50.05788040159998
 10
18.7395477295
 20
49.8052482605
  0
LWPOLYLINE
  5
259
330
1FF
100
AcDbEntity
  8
0
  6
Continuous
 62
   142
100
AcDbPolyline
 90
        2
 70
     0
 43
0.4999999847
 10
37.4145736694
 20
38.0612449646
 10
37.55128479
 20
37.9531135559
  0
LWPOLYLINE
  5
25A
330
1FF
100
AcDbEntity
  8
0
  6
Continuous
 62
   142
100
AcDbPolyline
 90
        2
 70
     0
 43
0.4999999847
 10
18.0265274048
 20
55.6612281799
 10
18.142326355
 20
55.5685768127
  0
LWPOLYLINE
  5
25B
330
1FF
100
AcDbEntity
  8
0
  6
Continuous
 62
   142
100
AcDbPolyline
 90
        2
 70
     0
 43
0.4999999847
 10
3.013381958
 20
66.5135231018
 10
2.7494812012
 20
66.7247276306
  0
LWPOLYLINE
  5
25C
330
1FF
100
AcDbEntity
  8
0
  6
Continuous
 62
   142
100
AcDbPolyline
 90
        2
 70
     0
 43
0.4999999847
 10
3.1112060547
 20
68.68805313109999
 10
2.8461456299
 20
68.90043258670001
  0
LWPOLYLINE
  5
25D
330
1FF
100
AcDbEntity
  8
0
  6
Continuous
 62
   142
100
AcDbPolyline
 90
        2
 70
     0
 43
0.4999999847
 10
1.1220169067
 20
70.4379005432
 10
1.1556015015
 20
70.4109840393
  0
LWPOLYLINE
  5
25E
330
1FF
100
AcDbEntity
  8
0
  6
Continuous
 62
   142
100
AcDbPolyline
 90
        2
 70
     0
 43
0.4999999847
 10
4.664024353
 20
62.58325576779999
 10
4.780105590799998
 20
62.487285614
  0
LWPOLYLINE
  5
25F
330
1FF
100
AcDbEntity
  8
0
  6
Continuous
 62
   142
100
AcDbPolyline
 90
        2
 70
     0
 43
0.4999999847
 10
10.0303421021
 20
57.7678108215
 10
9.303787231399999
 20
58.3753623962
  0
LWPOLYLINE
  5
260
330
1FF
100
AcDbEntity
  8
0
  6
Continuous
 62
   142
100
AcDbPolyline
 90
        2
 70
     0
 43
0.4999999847
 10
7.5606613159
 20
59.9523887634
 10
7.721237182599998
 20
59.8160438538
  0
LWPOLYLINE
  5
261
330
1FF
100
AcDbEntity
  8
0
  6
Continuous
 62
   142
100
AcDbPolyline
 90
        2
 70
     0
 43
0.4999999847
 10
29.4994277954
 20
40.0500831604
 10
29.2891235352
 20
40.2288627625
  0
LWPOLYLINE
  5
262
330
1FF
100
AcDbEntity
  8
0
  6
Continuous
 62
   142
100
AcDbPolyline
 90
        2
 70
     0
 43
0.4999999847
 10
29.5553894043
 20
40.00250625609999
 10
29.4994277954
 20
40.0500831604
  0
LWPOLYLINE
  5
263
330
1FF
100
AcDbEntity
  8
0
  6
Continuous
 62
   142
100
AcDbPolyline
 90
        2
 70
     0
 43
0.4999999847
 10
19.7312088013
 20
53.54968643189999
 10
19.9053039551
 20
53.40134811399999
  0
LWPOLYLINE
  5
264
330
1FF
100
AcDbEntity
  8
0
  6
Continuous
 62
   142
100
AcDbPolyline
 90
        2
 70
     0
 43
0.4999999847
 10
19.9053039551
 20
53.40134811399999
 10
19.906036377
 20
53.40072250369999
  0
LWPOLYLINE
  5
265
330
1FF
100
AcDbEntity
  8
0
  6
Continuous
 62
   142
100
AcDbPolyline
 90
        2
 70
     0
 43
0.4999999847
 10
49.8368606567
 20
26.6725502014
 10
50.8662872314
 20
25.7882881165
  0
LWPOLYLINE
  5
266
330
1FF
100
AcDbEntity
  8
0
  6
Continuous
 62
   142
100
AcDbPolyline
 90
        2
 70
     0
 43
0.4999999847
 10
37.55128479
 20
37.9531135559
 10
37.9289932251
 20
37.6271324158
  0
LWPOLYLINE
  5
267
330
1FF
100
AcDbEntity
  8
0
  6
Continuous
 62
   142
100
AcDbPolyline
 90
        2
 70
     0
 43
0.4999999847
 10
3.8192596436
 20
63.35058212279998
 10
4.581428527799999
 20
62.6902809143
  0
LWPOLYLINE
  5
268
330
1FF
100
AcDbEntity
  8
0
  6
Continuous
 62
   142
100
AcDbPolyline
 90
        2
 70
     0
 43
0.4999999847
 10
6.6595611572
 20
60.7707481384
 10
7.435981750499999
 20
60.0978660583
  0
LWPOLYLINE
  5
269
330
1FF
100
AcDbEntity
  8
0
  6
Continuous
 62
   142
100
AcDbPolyline
 90
        2
 70
     0
 43
0.4999999847
 10
74.9096984863
 20
2.260139465299999
 10
75.56137084959998
 20
1.694282531699998
  0
LWPOLYLINE
  5
26A
330
1FF
100
AcDbEntity
  8
0
  6
Continuous
 62
   142
100
AcDbPolyline
 90
        2
 70
     0
 43
0.4999999847
 10
7.8845291138
 20
70.2812995911
 10
8.5911407471
 20
69.66563797
  0
LWPOLYLINE
  5
26B
330
1FF
100
AcDbEntity
  8
0
  6
Continuous
 62
   142
100
AcDbPolyline
 90
        2
 70
     0
 43
0.4999999847
 10
62.8388061523
 20
9.753318786599999
 10
62.63844299319999
 20
9.928234100299999
  0
LWPOLYLINE
  5
26C
330
1FF
100
AcDbEntity
  8
0
  6
Continuous
 62
   142
100
AcDbPolyline
 90
        2
 70
     0
 43
0.4999999847
 10
18.0813064575
 20
50.3538856506
 10
18.4182662964
 20
50.05788040159998
  0
LWPOLYLINE
  5
26D
330
1FF
100
AcDbEntity
  8
0
  6
Continuous
 62
   142
100
AcDbPolyline
 90
        2
 70
     0
 43
0.4999999847
 10
2.8155670166
 20
68.9493370056
 10
1.1220169067
 20
70.4379005432
  0
LWPOLYLINE
  5
26E
330
1FF
100
AcDbEntity
  8
0
  6
Continuous
 62
   142
100
AcDbPolyline
 90
        2
 70
     0
 43
0.4999999847
 10
15.0336151123
 20
53.16306686399999
 10
15.9423370361
 20
52.35974502560001
  0
LWPOLYLINE
  5
26F
330
1FF
100
AcDbEntity
  8
0
  6
Continuous
 62
   142
100
AcDbPolyline
 90
        2
 70
     0
 43
0.4999999847
 10
18.8081970215
 20
54.3722496033
 10
19.591583252
 20
53.6788978577
  0
LWPOLYLINE
  5
270
330
1FF
100
AcDbEntity
  8
0
  6
Continuous
 62
   142
100
AcDbPolyline
 90
        2
 70
     0
 43
0.4999999847
 10
11.1816253662
 20
61.1884117126
 10
10.0829849243
 20
62.16209030149999
  0
LWPOLYLINE
  5
271
330
1FF
100
AcDbEntity
  8
0
  6
Continuous
 62
   142
100
AcDbPolyline
 90
        2
 70
     0
 43
0.4999999847
 10
56.6678009033
 20
20.5829811096
 10
55.07230377199999
 20
21.9992256165
  0
LWPOLYLINE
  5
272
330
1FF
100
AcDbEntity
  8
0
  6
Continuous
 62
   142
100
AcDbPolyline
 90
        2
 70
     0
 43
0.4999999847
 10
70.8298797607
 20
9.218959808300001
 10
69.6477813721
 20
10.2699012756
  0
LWPOLYLINE
  5
273
330
1FF
100
AcDbEntity
  8
0
  6
Continuous
 62
   142
100
AcDbPolyline
 90
        2
 70
     0
 43
0.4999999847
 10
65.28280639649999
 20
7.525619506799999
 10
65.9987030029
 20
6.888969421399998
  0
LWPOLYLINE
  5
274
330
1FF
100
AcDbEntity
  8
0
  6
Continuous
 62
   142
100
AcDbPolyline
 90
        2
 70
     0
 43
0.4999999847
 10
72.931854248
 20
7.350044250499999
 10
71.70928955079998
 20
8.437122345
  0
LWPOLYLINE
  5
275
330
1FF
100
AcDbEntity
  8
0
  6
Continuous
 62
   142
100
AcDbPolyline
 90
        2
 70
     0
 43
0.4999999847
 10
12.0157699585
 20
55.9197425842
 10
12.1640625
 20
55.7877998352
  0
LWPOLYLINE
  5
276
330
1FF
100
AcDbEntity
  8
0
  6
Continuous
 62
   142
100
AcDbPolyline
 90
        2
 70
     0
 43
0.4999999847
 10
50.1538772583
 20
26.4002876282
 10
50.9373626709
 20
25.7027320862
  0
LWPOLYLINE
  5
277
330
1FF
100
AcDbEntity
  8
0
  6
Continuous
 62
   142
100
AcDbPolyline
 90
        2
 70
     0
 43
0.4999999847
 10
59.2984466553
 20
18.5490074158
 10
60.5210571289
 20
17.4592475891
  0
LWPOLYLINE
  5
278
330
1FF
100
AcDbEntity
  8
0
  6
Continuous
 62
   142
100
AcDbPolyline
 90
        2
 70
     0
 43
0.4999999847
 10
54.815246582
 20
17.059337616
 10
53.62813568119999
 20
18.1175041199
  0
LWPOLYLINE
  5
279
330
1FF
100
AcDbEntity
  8
0
  6
Continuous
 62
   142
100
AcDbPolyline
 90
        2
 70
     0
 43
0.4999999847
 10
9.0975570679
 20
63.3170433044
 10
7.860679626499998
 20
64.4200401306
  0
LWPOLYLINE
  5
27A
330
1FF
100
AcDbEntity
  8
0
  6
Continuous
 62
   142
100
AcDbPolyline
 90
        2
 70
     0
 43
0.4999999847
 10
50.96648406979999
 20
25.6677055359
 10
51.1334686279
 20
25.5186576843
  0
LWPOLYLINE
  5
27B
330
1FF
100
AcDbEntity
  8
0
  6
Continuous
 62
   142
100
AcDbPolyline
 90
        2
 70
     0
 43
0.4999999847
 10
10.1844787598
 20
57.5925483704
 10
9.366455078099999
 20
58.3229560852
  0
LWPOLYLINE
  5
27C
330
1FF
100
AcDbEntity
  8
0
  6
Continuous
 62
   142
100
AcDbPolyline
 90
        2
 70
     0
 43
0.4999999847
 10
53.7536849976
 20
23.1763801575
 10
52.09801483149999
 20
24.6544303894
  0
LWPOLYLINE
  5
27D
330
1FF
100
AcDbEntity
  8
0
  6
Continuous
 62
   142
100
AcDbPolyline
 90
        2
 70
     0
 43
0.4999999847
 10
2.8461456299
 20
68.90043258670001
 10
1.333999633799999
 20
70.2515678406
  0
LWPOLYLINE
  5
27E
330
1FF
100
AcDbEntity
  8
0
  6
Continuous
 62
   142
100
AcDbPolyline
 90
        2
 70
     0
 43
0.4999999847
 10
2.7494812012
 20
66.7247276306
 10
1.392723083499999
 20
67.93895339969999
  0
LWPOLYLINE
  5
27F
330
1FF
100
AcDbEntity
  8
0
  6
Continuous
 62
   142
100
AcDbPolyline
 90
        2
 70
     0
 43
0.4999999847
 10
43.98219299319999
 20
26.8376045227
 10
43.5836257935
 20
27.1945075989
  0
LWPOLYLINE
  5
280
330
1FF
100
AcDbEntity
  8
0
  6
Continuous
 62
   142
100
AcDbPolyline
 90
        2
 70
     0
 43
0.4999999847
 10
71.5271148682
 20
5.3000869751
 10
70.6557617188
 20
6.0824394226
  0
LWPOLYLINE
  5
281
330
1FF
100
AcDbEntity
  8
0
  6
Continuous
 62
   142
100
AcDbPolyline
 90
        2
 70
     0
 43
0.4999999847
 10
76.5285491943
 20
0.8060836791999999
 10
77.32316589359999
 20
0.0921669006
  0
LWPOLYLINE
  5
282
330
1FF
100
AcDbEntity
  8
0
  6
Continuous
 62
   142
100
AcDbPolyline
 90
        2
 70
     0
 43
0.4999999847
 10
61.1479187012
 20
11.2784233093
 10
62.324432373
 20
10.2203483582
  0
LWPOLYLINE
  5
283
330
1FF
100
AcDbEntity
  8
0
  6
Continuous
 62
   142
100
AcDbPolyline
 90
        2
 70
     0
 43
0.4999999847
 10
73.3663024902
 20
3.6476898193
 10
74.08428955079997
 20
3.0018806458
  0
LWPOLYLINE
  5
284
330
1FF
100
AcDbEntity
  8
0
  6
Continuous
 62
   142
100
AcDbPolyline
 90
        2
 70
     0
 43
0.4999999847
 10
23.8395233154
 20
47.7468986511
 10
21.9677124023
 20
49.4310951233
  0
LWPOLYLINE
  5
285
330
1FF
100
AcDbEntity
  8
0
  6
Continuous
 62
   142
100
AcDbPolyline
 90
        2
 70
     0
 43
0.4999999847
 10
59.2025604248
 20
15.921169281
 10
60.09000396729999
 20
15.1221733093
  0
LWPOLYLINE
  5
286
330
1FF
100
AcDbEntity
  8
0
  6
Continuous
 62
   142
100
AcDbPolyline
 90
        2
 70
     0
 43
0.4999999847
 10
29.2891235352
 20
40.2288627625
 10
28.3486633301
 20
41.0761909485
  0
LWPOLYLINE
  5
287
330
1FF
100
AcDbEntity
  8
0
  6
Continuous
 62
   142
100
AcDbPolyline
 90
        2
 70
     0
 43
0.4999999847
 10
36.1572113037
 20
33.9793739319
 10
37.8037033081
 20
32.49482345580002
  0
LWPOLYLINE
  5
288
330
1FF
100
AcDbEntity
  8
0
  6
Continuous
 62
   142
100
AcDbPolyline
 90
        2
 70
     0
 43
0.4999999847
 10
34.78477478030001
 20
35.2319297791
 10
33.6204071045
 20
36.2818412781
  0
LWPOLYLINE
  5
289
330
1FF
100
AcDbEntity
  8
0
  6
Continuous
 62
   142
100
AcDbPolyline
 90
        2
 70
     0
 43
0.4999999847
 10
4.871124267599999
 20
63.49203109739999
 10
6.3251647949
 20
62.1780433655
  0
LWPOLYLINE
  5
28A
330
1FF
100
AcDbEntity
  8
0
  6
Continuous
 62
   142
100
AcDbPolyline
 90
        2
 70
     0
 43
0.4999999847
 10
24.7543487549
 20
44.345249176
 10
23.8955764771
 20
45.1220283508
  0
LWPOLYLINE
  5
28B
330
1FF
100
AcDbEntity
  8
0
  6
Continuous
 62
   142
100
AcDbPolyline
 90
        2
 70
     0
 43
0.4999999847
 10
13.1986694336
 20
55.9195137024
 10
14.7780380249
 20
54.49086379999999
  0
LWPOLYLINE
  5
28C
330
1FF
100
AcDbEntity
  8
0
  6
Continuous
 62
   142
100
AcDbPolyline
 90
        2
 70
     0
 43
0.4999999847
 10
31.7844238281
 20
37.951915741
 10
30.7932128906
 20
38.852191925
  0
LWPOLYLINE
  5
28D
330
1FF
100
AcDbEntity
  8
0
  6
Continuous
 62
   142
100
AcDbPolyline
 90
        2
 70
     0
 43
0.4999999847
 10
1.5309753418
 20
65.4312553406
 10
0.6162948608
 20
66.2620201111
  0
LWPOLYLINE
  5
28E
330
1FF
100
AcDbEntity
  8
0
  6
Continuous
 62
   142
100
AcDbPolyline
 90
        2
 70
     0
 43
0.4999999847
 10
22.0311355591
 20
46.8153953552
 10
21.108001709
 20
47.65382766720001
  0
LWPOLYLINE
  5
28F
330
1FF
100
AcDbEntity
  8
0
  6
Continuous
 62
   142
100
AcDbPolyline
 90
        2
 70
     0
 43
0.4999999847
 10
57.71900177
 20
14.4007453918
 10
59.1010894775
 20
13.1403465271
  0
LWPOLYLINE
  5
290
330
1FF
100
AcDbEntity
  8
0
  6
Continuous
 62
   142
100
AcDbPolyline
 90
        2
 70
     0
 43
0.4999999847
 10
54.9239196777
 20
16.9351005554
 10
53.7985534668
 20
17.9656105042
  0
LWPOLYLINE
  5
291
330
1FF
100
AcDbEntity
  8
0
  6
Continuous
 62
   142
100
AcDbPolyline
 90
        2
 70
     0
 43
0.4999999847
 10
48.95899963379999
 20
22.3268852234
 10
49.3687286377
 20
21.9516487122
  0
LWPOLYLINE
  5
292
330
1FF
100
AcDbEntity
  8
0
  6
Continuous
 62
   142
100
AcDbPolyline
 90
        2
 70
     0
 43
0.4999999847
 10
6.8491439819
 20
60.60644149779998
 10
7.5606613159
 20
59.9523887634
  0
LWPOLYLINE
  5
293
330
1FF
100
AcDbEntity
  8
0
  6
Continuous
 62
   142
100
AcDbPolyline
 90
        2
 70
     0
 43
0.4999999847
 10
3.9957351685
 20
63.1976966858
 10
4.664024353
 20
62.58325576779999
  0
LWPOLYLINE
  5
294
330
1FF
100
AcDbEntity
  8
0
  6
Continuous
 62
   142
100
AcDbPolyline
 90
        2
 70
     0
 43
0.4999999847
 10
75.262878418
 20
1.953456878699999
 10
75.6484527588
 20
1.596862793
  0
LWPOLYLINE
  5
295
330
1FF
100
AcDbEntity
  8
0
  6
Continuous
 62
   142
100
AcDbPolyline
 90
        2
 70
     0
 43
0.4999999847
 10
18.8032989502
 20
54.40835189819999
 10
19.7312088013
 20
53.54968643189999
  0
LWPOLYLINE
  5
296
330
1FF
100
AcDbEntity
  8
0
  6
Continuous
 62
   142
100
AcDbPolyline
 90
        2
 70
     0
 43
0.4999999847
 10
15.8640136719
 20
52.42897415159998
 10
16.1209564209
 20
52.1910896301
  0
LWPOLYLINE
  5
297
330
1FF
100
AcDbEntity
  8
0
  6
Continuous
 62
   142
100
AcDbPolyline
 90
        2
 70
     0
 43
0.4999999847
 10
65.313293457
 20
7.525241851799999
 10
66.6759643555
 20
6.2602539063
  0
LWPOLYLINE
  5
298
330
1FF
100
AcDbEntity
  8
0
  6
Continuous
 62
   142
100
AcDbPolyline
 90
        2
 70
     0
 43
0.4999999847
 10
36.1881942749
 20
33.9961357117
 10
38.3597183228
 20
31.9781227112
  0
LWPOLYLINE
  5
299
330
1FF
100
AcDbEntity
  8
0
  6
Continuous
 62
   142
100
AcDbPolyline
 90
        2
 70
     0
 43
0.4999999847
 10
62.63844299319999
 20
9.928234100299999
 10
61.1756744385
 20
11.2890663147
  0
LWPOLYLINE
  5
29A
330
1FF
100
AcDbEntity
  8
0
  6
Continuous
 62
   142
100
AcDbPolyline
 90
        2
 70
     0
 43
0.4999999847
 10
12.0379257202
 20
55.905254364
 10
12.9674377441
 20
55.03969955439999
  0
LWPOLYLINE
  5
29B
330
1FF
100
AcDbEntity
  8
0
  6
Continuous
 62
   142
100
AcDbPolyline
 90
        2
 70
     0
 43
0.4999999847
 10
24.8688583374
 20
44.2380409241
 10
23.9126434326
 20
45.13344192499999
  0
LWPOLYLINE
  5
29C
330
1FF
100
AcDbEntity
  8
0
  6
Continuous
 62
   142
100
AcDbPolyline
 90
        2
 70
     0
 43
0.4999999847
 10
16.1209564209
 20
52.1910896301
 10
16.1366577148
 20
52.1762733459
  0
LWPOLYLINE
  5
29D
330
1FF
100
AcDbEntity
  8
0
  6
Continuous
 62
   142
100
AcDbPolyline
 90
        2
 70
     0
 43
0.4999999847
 10
15.8532104492
 20
52.4439201355
 10
15.8357849121
 20
52.4603691101
  0
LWPOLYLINE
  5
29E
330
1FF
100
AcDbEntity
  8
0
  6
Continuous
 62
   142
100
AcDbPolyline
 90
        2
 70
     0
 43
0.4999999847
 10
10.2802658081
 20
57.48362350459998
 10
9.896575927699998
 20
57.84962081909998
  0
LWPOLYLINE
  5
29F
330
1FF
100
AcDbEntity
  8
0
  6
Continuous
 62
   142
100
AcDbPolyline
 90
        2
 70
     0
 43
0.4999999847
 10
48.97966766359999
 20
28.0790290833
 10
49.10670471189999
 20
27.9578132629
  0
LWPOLYLINE
  5
2A0
330
1FF
100
AcDbEntity
  8
0
  6
Continuous
 62
   142
100
AcDbPolyline
 90
        2
 70
     0
 43
0.4999999847
 10
43.5836257935
 20
27.1945075989
 10
43.1979370117
 20
27.5773963928
  0
LWPOLYLINE
  5
2A1
330
1FF
100
AcDbEntity
  8
0
  6
Continuous
 62
   142
100
AcDbPolyline
 90
        2
 70
     0
 43
0.4999999847
 10
48.563659668
 20
22.723361969
 10
48.95899963379999
 20
22.3268852234
  0
LWPOLYLINE
  5
2A2
330
1FF
100
AcDbEntity
  8
0
  6
Continuous
 62
   142
100
AcDbPolyline
 90
        2
 70
     0
 43
0.4999999847
 10
17.9050674438
 20
50.5318870544
 10
18.0813064575
 20
50.3538856506
  0
LWPOLYLINE
  5
2A3
330
1FF
100
AcDbEntity
  8
0
  6
Continuous
 62
   142
100
AcDbPolyline
 90
        2
 70
     0
 43
0.4999999847
 10
15.8357849121
 20
52.4603691101
 10
15.0477371216
 20
53.2570457458
  0
LWPOLYLINE
  5
2A4
330
1FF
100
AcDbEntity
  8
0
  6
Continuous
 62
   142
100
AcDbPolyline
 90
        2
 70
     0
 43
0.4999999847
 10
17.7967529297
 20
50.64162063600001
 10
17.9050674438
 20
50.5318870544
  0
LWPOLYLINE
  5
2A5
330
1FF
100
AcDbEntity
  8
0
  6
Continuous
 62
   142
100
AcDbPolyline
 90
        2
 70
     0
 43
0.4999999847
 10
43.1979370117
 20
27.5773963928
 10
43.09025573729999
 20
27.6879463196
  0
LWPOLYLINE
  5
2A6
330
1FF
100
AcDbEntity
  8
0
  6
Continuous
 62
   142
100
AcDbPolyline
 90
        2
 70
     0
 43
0.4999999847
 10
18.0295639038
 20
55.6865196228
 10
18.1646194458
 20
55.54525375369999
  0
LWPOLYLINE
  5
2A7
330
1FF
100
AcDbEntity
  8
0
  6
Continuous
 62
   142
100
AcDbPolyline
 90
        2
 70
     0
 43
0.4999999847
 10
43.09025573729999
 20
27.6879463196
 10
42.71313476559998
 20
28.0825157166
  0
LWPOLYLINE
  5
2A8
330
1FF
100
AcDbEntity
  8
0
  6
Continuous
 62
   142
100
AcDbPolyline
 90
        2
 70
     0
 43
0.4999999847
 10
48.4582138062
 20
22.8343849182
 10
48.563659668
 20
22.723361969
  0
LWPOLYLINE
  5
2A9
330
1FF
100
AcDbEntity
  8
0
  6
Continuous
 62
   142
100
AcDbPolyline
 90
        2
 70
     0
 43
0.4999999847
 10
37.8231506348
 20
37.7391624451
 10
38.01433563230001
 20
37.5368232727
  0
LWPOLYLINE
  5
2AA
330
1FF
100
AcDbEntity
  8
0
  6
Continuous
 62
   142
100
AcDbPolyline
 90
        2
 70
     0
 43
0.4999999847
 10
48.0662612915
 20
23.2548484802
 10
48.4582138062
 20
22.8343849182
  0
LWPOLYLINE
  5
2AB
330
1FF
100
AcDbEntity
  8
0
  6
Continuous
 62
   142
100
AcDbPolyline
 90
        2
 70
     0
 43
0.4999999847
 10
49.0280990601
 20
28.0460929871
 10
49.20059204100001
 20
27.8523674011
  0
LWPOLYLINE
  5
2AC
330
1FF
100
AcDbEntity
  8
0
  6
Continuous
 62
   142
100
AcDbPolyline
 90
        2
 70
     0
 43
0.4999999847
 10
42.71313476559998
 20
28.0825157166
 10
42.5192871094
 20
28.3025856018
  0
LWPOLYLINE
  5
2AD
330
1FF
100
AcDbEntity
  8
0
  6
Continuous
 62
   142
100
AcDbPolyline
 90
        2
 70
     0
 43
0.4999999847
 10
17.6259307861
 20
50.8362617493
 10
17.7967529297
 20
50.64162063600001
  0
LWPOLYLINE
  5
2AE
330
1FF
100
AcDbEntity
  8
0
  6
Continuous
 62
   142
100
AcDbPolyline
 90
        2
 70
     0
 43
0.4999999847
 10
47.86556243899999
 20
23.4978752136
 10
48.0662612915
 20
23.2548484802
  0
LWPOLYLINE
  5
2AF
330
1FF
100
AcDbEntity
  8
0
  6
Continuous
 62
   142
100
AcDbPolyline
 90
        2
 70
     0
 43
0.4999999847
 10
48.8947753906
 20
25.2104682922
 10
49.2709350586
 20
24.7480506897
  0
LWPOLYLINE
  5
2B0
330
1FF
100
AcDbEntity
  8
0
  6
Continuous
 62
   142
100
AcDbPolyline
 90
        2
 70
     0
 43
0.4999999847
 10
38.01433563230001
 20
37.5368232727
 10
38.2002258301
 20
37.30507278440001
  0
LWPOLYLINE
  5
2B1
330
1FF
100
AcDbEntity
  8
0
  6
Continuous
 62
   142
100
AcDbPolyline
 90
        2
 70
     0
 43
0.4999999847
 10
17.9772491455
 20
53.11326217649999
 10
18.2837677002
 20
52.7212944031
  0
LWPOLYLINE
  5
2B2
330
1FF
100
AcDbEntity
  8
0
  6
Continuous
 62
   142
100
AcDbPolyline
 90
        2
 70
     0
 43
0.4999999847
 10
42.5192871094
 20
28.3025856018
 10
42.32337188719998
 20
28.5538978577
  0
LWPOLYLINE
  5
2B3
330
1FF
100
AcDbEntity
  8
0
  6
Continuous
 62
   142
100
AcDbPolyline
 90
        2
 70
     0
 43
0.4999999847
 10
17.4579086304
 20
51.0540275574
 10
17.6259307861
 20
50.8362617493
  0
LWPOLYLINE
  5
2B4
330
1FF
100
AcDbEntity
  8
0
  6
Continuous
 62
   142
100
AcDbPolyline
 90
        2
 70
     0
 43
0.4999999847
 10
17.6684265137
 20
53.51803207399999
 10
17.9772491455
 20
53.11326217649999
  0
LWPOLYLINE
  5
2B5
330
1FF
100
AcDbEntity
  8
0
  6
Continuous
 62
   142
100
AcDbPolyline
 90
        2
 70
     0
 43
0.4999999847
 10
18.1646194458
 20
55.54525375369999
 10
18.29737854
 20
55.36822891239999
  0
LWPOLYLINE
  5
2B6
330
1FF
100
AcDbEntity
  8
0
  6
Continuous
 62
   142
100
AcDbPolyline
 90
        2
 70
     0
 43
0.4999999847
 10
18.2837677002
 20
52.7212944031
 10
18.5718765259
 20
52.3337440491
  0
LWPOLYLINE
  5
2B7
330
1FF
100
AcDbEntity
  8
0
  6
Continuous
 62
   142
100
AcDbPolyline
 90
        2
 70
     0
 43
0.4999999847
 10
17.3602371216
 20
53.9523277283
 10
17.6684265137
 20
53.51803207399999
  0
LWPOLYLINE
  5
2B8
330
1FF
100
AcDbEntity
  8
0
  6
Continuous
 62
   142
100
AcDbPolyline
 90
        2
 70
     0
 43
0.4999999847
 10
17.2947158813
 20
51.2938423157
 10
17.4579086304
 20
51.0540275574
  0
LWPOLYLINE
  5
2B9
330
1FF
100
AcDbEntity
  8
0
  6
Continuous
 62
   142
100
AcDbPolyline
 90
        2
 70
     0
 43
0.4999999847
 10
17.2069778442
 20
54.1876411438
 10
17.3602371216
 20
53.9523277283
  0
LWPOLYLINE
  5
2BA
330
1FF
100
AcDbEntity
  8
0
  6
Continuous
 62
   142
100
AcDbPolyline
 90
        2
 70
     0
 43
0.4999999847
 10
18.29737854
 20
55.36822891239999
 10
18.5812225342
 20
54.92660140989999
  0
LWPOLYLINE
  5
2BB
330
1FF
100
AcDbEntity
  8
0
  6
Continuous
 62
   142
100
AcDbPolyline
 90
        2
 70
     0
 43
0.4999999847
 10
18.5718765259
 20
52.3337440491
 10
18.7006530762
 20
52.12887191770001
  0
LWPOLYLINE
  5
2BC
330
1FF
100
AcDbEntity
  8
0
  6
Continuous
 62
   142
100
AcDbPolyline
 90
        2
 70
     0
 43
0.4999999847
 10
17.1367492676
 20
51.55794906619998
 10
17.2947158813
 20
51.2938423157
  0
LWPOLYLINE
  5
2BD
330
1FF
100
AcDbEntity
  8
0
  6
Continuous
 62
   142
100
AcDbPolyline
 90
        2
 70
     0
 43
0.4999999847
 10
17.0557174683
 20
54.4424934387
 10
17.2069778442
 20
54.1876411438
  0
LWPOLYLINE
  5
2BE
330
1FF
100
AcDbEntity
  8
0
  6
Continuous
 62
   142
100
AcDbPolyline
 90
        2
 70
     0
 43
0.4999999847
 10
18.7006530762
 20
52.12887191770001
 10
18.8166427612
 20
51.9084434509
  0
LWPOLYLINE
  5
2BF
330
1FF
100
AcDbEntity
  8
0
  6
Continuous
 62
   142
100
AcDbPolyline
 90
        2
 70
     0
 43
0.4999999847
 10
16.9891433716
 20
51.8421592712
 10
17.1367492676
 20
51.55794906619998
  0
LWPOLYLINE
  5
2C0
330
1FF
100
AcDbEntity
  8
0
  6
Continuous
 62
   142
100
AcDbPolyline
 90
        2
 70
     0
 43
0.4999999847
 10
16.91030120849999
 20
54.7243537903
 10
17.0557174683
 20
54.4424934387
  0
LWPOLYLINE
  5
2C1
330
1FF
100
AcDbEntity
  8
0
  6
Continuous
 62
   142
100
AcDbPolyline
 90
        2
 70
     0
 43
0.4999999847
 10
62.4964752197
 20
13.973033905
 10
62.7669067383
 20
14.0431175232
  0
LWPOLYLINE
  5
2C2
330
1FF
100
AcDbEntity
  8
0
  6
Continuous
 62
   142
100
AcDbPolyline
 90
        2
 70
     0
 43
0.4999999847
 10
45.4480667114
 20
26.237537384
 10
45.2479629517
 20
26.226474762
  0
LWPOLYLINE
  5
2C3
330
1FF
100
AcDbEntity
  8
0
  6
Continuous
 62
   142
100
AcDbPolyline
 90
        2
 70
     0
 43
0.4999999847
 10
51.49243927
 20
25.3542366028
 10
51.6396026611
 20
25.3596534729
  0
LWPOLYLINE
  5
2C4
330
1FF
100
AcDbEntity
  8
0
  6
Continuous
 62
   142
100
AcDbPolyline
 90
        2
 70
     0
 43
0.4999999847
 10
25.4245223999
 20
43.96582412719999
 10
25.1606369019
 20
44.0142707825
  0
LWPOLYLINE
  5
2C5
330
1FF
100
AcDbEntity
  8
0
  6
Continuous
 62
   142
100
AcDbPolyline
 90
        2
 70
     0
 43
0.4999999847
 10
22.4549636841
 20
46.56843948359999
 10
22.32056427
 20
46.5933876038
  0
LWPOLYLINE
  5
2C6
330
1FF
100
AcDbEntity
  8
0
  6
Continuous
 62
   142
100
AcDbPolyline
 90
        2
 70
     0
 43
0.4999999847
 10
22.5827026367
 20
46.54473495479999
 10
22.4549636841
 20
46.56843948359999
  0
LWPOLYLINE
  5
2C7
330
1FF
100
AcDbEntity
  8
0
  6
Continuous
 62
   142
100
AcDbPolyline
 90
        2
 70
     0
 43
0.4999999847
 10
46.4063949585
 20
50.55142593380001
 10
47.0879898071
 20
50.37553787229999
  0
LWPOLYLINE
  5
2C8
330
1FF
100
AcDbEntity
  8
0
  6
Continuous
 62
   142
100
AcDbPolyline
 90
        2
 70
     0
 43
0.4999999847
 10
19.4299850464
 20
49.4011878967
 10
19.6413040161
 20
49.3437080383
  0
LWPOLYLINE
  5
2C9
330
1FF
100
AcDbEntity
  8
0
  6
Continuous
 62
   142
100
AcDbPolyline
 90
        2
 70
     0
 43
0.4999999847
 10
7.889305114699999
 20
59.71953201289998
 10
8.0394821167
 20
59.67567825319999
  0
LWPOLYLINE
  5
2CA
330
1FF
100
AcDbEntity
  8
0
  6
Continuous
 62
   142
100
AcDbPolyline
 90
        2
 70
     0
 43
0.4999999847
 10
20.1936950684
 20
53.26778030399999
 10
20.236328125
 20
53.25499343869999
  0
LWPOLYLINE
  5
2CB
330
1FF
100
AcDbEntity
  8
0
  6
Continuous
 62
   142
100
AcDbPolyline
 90
        2
 70
     0
 43
0.4999999847
 10
20.0722427368
 20
53.3042259216
 10
20.1936950684
 20
53.26778030399999
  0
LWPOLYLINE
  5
2CC
330
1FF
100
AcDbEntity
  8
0
  6
Continuous
 62
   142
100
AcDbPolyline
 90
        2
 70
     0
 43
0.4999999847
 10
17.8020019531
 20
55.76522445680001
 10
17.9050674438
 20
55.7328300476
  0
LWPOLYLINE
  5
2CD
330
1FF
100
AcDbEntity
  8
0
  6
Continuous
 62
   142
100
AcDbPolyline
 90
        2
 70
     0
 43
0.4999999847
 10
19.2521972656
 20
49.45952987670001
 10
19.4299850464
 20
49.4011878967
  0
LWPOLYLINE
  5
2CE
330
1FF
100
AcDbEntity
  8
0
  6
Continuous
 62
   142
100
AcDbPolyline
 90
        2
 70
     0
 43
0.4999999847
 10
23.3346405029
 20
59.4085578918
 10
23.0470275879
 20
59.5134925842
  0
LWPOLYLINE
  5
2CF
330
1FF
100
AcDbEntity
  8
0
  6
Continuous
 62
   142
100
AcDbPolyline
 90
        2
 70
     0
 43
0.4999999847
 10
1.569747924799998
 20
65.4128684998
 10
1.5309753418
 20
65.4312553406
  0
LWPOLYLINE
  5
2D0
330
1FF
100
AcDbEntity
  8
0
  6
Continuous
 62
   142
100
AcDbPolyline
 90
        2
 70
     0
 43
0.4999999847
 10
1.804840087899999
 20
65.301410675
 10
1.569747924799998
 20
65.4128684998
  0
LWPOLYLINE
  5
2D1
330
1FF
100
AcDbEntity
  8
0
  6
Continuous
 62
   142
100
AcDbPolyline
 90
        2
 70
     0
 43
0.4999999847
 10
4.780105590799998
 20
62.487285614
 10
4.9230422974
 20
62.4194068909
  0
LWPOLYLINE
  5
2D2
330
1FF
100
AcDbEntity
  8
0
  6
Continuous
 62
   142
100
AcDbPolyline
 90
        2
 70
     0
 43
0.4999999847
 10
26.126739502
 20
64.25806808469999
 10
26.5317993164
 20
64.02933120729999
  0
LWPOLYLINE
  5
2D3
330
1FF
100
AcDbEntity
  8
0
  6
Continuous
 62
   142
100
AcDbPolyline
 90
        2
 70
     0
 43
0.4999999847
 10
45.9539642334
 20
50.8090629578
 10
46.4063949585
 20
50.55142593380001
  0
LWPOLYLINE
  5
2D4
330
1FF
100
AcDbEntity
  8
0
  6
Continuous
 62
   142
100
AcDbPolyline
 90
        2
 70
     0
 43
0.4999999847
 10
67.06602478029998
 20
30.0578651428
 10
67.6646118164
 20
29.6998786926
  0
LWPOLYLINE
  5
2D5
330
1FF
100
AcDbEntity
  8
0
  6
Continuous
 62
   142
100
AcDbPolyline
 90
        2
 70
     0
 43
0.4999999847
 10
61.3539276123
 20
33.4882850647
 10
65.1592407227
 20
31.202999115
  0
LWPOLYLINE
  5
2D6
330
1FF
100
AcDbEntity
  8
0
  6
Continuous
 62
   142
100
AcDbPolyline
 90
        2
 70
     0
 43
0.4999999847
 10
65.1592407227
 20
31.202999115
 10
67.06602478029998
 20
30.0578651428
  0
LWPOLYLINE
  5
2D7
330
1FF
100
AcDbEntity
  8
0
  6
Continuous
 62
   142
100
AcDbPolyline
 90
        2
 70
     0
 43
0.4999999847
 10
68.1256408691
 20
29.4203910828
 10
67.06814575199999
 20
30.061466217
  0
LWPOLYLINE
  5
2D8
330
1FF
100
AcDbEntity
  8
0
  6
Continuous
 62
   142
100
AcDbPolyline
 90
        2
 70
     0
 43
0.4999999847
 10
53.7909011841
 20
38.0781059265
 10
61.3539276123
 20
33.4882850647
  0
LWPOLYLINE
  5
2D9
330
1FF
100
AcDbEntity
  8
0
  6
Continuous
 62
   142
100
AcDbPolyline
 90
        2
 70
     0
 43
0.4999999847
 10
67.08930969239999
 20
30.0742225647
 10
68.9506530762
 20
28.8998985291
  0
LWPOLYLINE
  5
2DA
330
1FF
100
AcDbEntity
  8
0
  6
Continuous
 62
   142
100
AcDbPolyline
 90
        2
 70
     0
 43
0.4999999847
 10
23.7120666504
 20
59.145740509
 10
23.3346405029
 20
59.4085578918
  0
LWPOLYLINE
  5
2DB
330
1FF
100
AcDbEntity
  8
0
  6
Continuous
 62
   142
100
AcDbPolyline
 90
        2
 70
     0
 43
0.4999999847
 10
8.5936126709
 20
76.34436416629998
 10
10.2514801025
 20
75.01213455199999
  0
LWPOLYLINE
  5
2DC
330
1FF
100
AcDbEntity
  8
0
  6
Continuous
 62
   142
100
AcDbPolyline
 90
        2
 70
     0
 43
0.4999999847
 10
10.2514801025
 20
75.01213455199999
 10
11.4661102295
 20
74.03609085079998
  0
LWPOLYLINE
  5
2DD
330
1FF
100
AcDbEntity
  8
0
  6
Continuous
 62
   142
100
AcDbPolyline
 90
        2
 70
     0
 43
0.4999999847
 10
24.1950073242
 20
58.7460289001
 10
23.7120666504
 20
59.145740509
  0
LWPOLYLINE
  5
2DE
330
1FF
100
AcDbEntity
  8
0
  6
Continuous
 62
   142
100
AcDbPolyline
 90
        2
 70
     0
 43
0.4999999847
 10
76.1027984619
 20
14.4840812683
 10
79.62403869630001
 20
11.4521903992
  0
LWPOLYLINE
  5
2DF
330
1FF
100
AcDbEntity
  8
0
  6
Continuous
 62
   142
100
AcDbPolyline
 90
        2
 70
     0
 43
0.4999999847
 10
81.63557434080003
 20
9.720191955599998
 10
80.0488586426
 20
11.0864143372
  0
LWPOLYLINE
  5
2E0
330
1FF
100
AcDbEntity
  8
0
  6
Continuous
 62
   142
100
AcDbPolyline
 90
        2
 70
     0
 43
0.4999999847
 10
84.24928283689999
 20
7.4696846008
 10
82.68064880369998
 20
8.820343017599997
  0
LWPOLYLINE
  5
2E1
330
1FF
100
AcDbEntity
  8
0
  6
Continuous
 62
   142
100
AcDbPolyline
 90
        2
 70
     0
 43
0.4999999847
 10
36.6657485962
 20
47.8760795593
 10
37.9370193481
 20
46.7792167664
  0
LWPOLYLINE
  5
2E2
330
1FF
100
AcDbEntity
  8
0
  6
Continuous
 62
   142
100
AcDbPolyline
 90
        2
 70
     0
 43
0.4999999847
 10
44.5848236084
 20
41.0433540344
 10
42.1342544556
 20
43.1577415466
  0
LWPOLYLINE
  5
2E3
330
1FF
100
AcDbEntity
  8
0
  6
Continuous
 62
   142
100
AcDbPolyline
 90
        2
 70
     0
 43
0.4999999847
 10
11.8404998779
 20
69.2958106995
 10
10.5623245239
 20
70.3986549377
  0
LWPOLYLINE
  5
2E4
330
1FF
100
AcDbEntity
  8
0
  6
Continuous
 62
   142
100
AcDbPolyline
 90
        2
 70
     0
 43
0.4999999847
 10
5.904449462899999
 20
74.4175605774
 10
8.7916030884
 20
71.9264564514
  0
LWPOLYLINE
  5
2E5
330
1FF
100
AcDbEntity
  8
0
  6
Continuous
 62
   142
100
AcDbPolyline
 90
        2
 70
     0
 43
0.4999999847
 10
34.17025756840001
 20
50.02923965449999
 10
35.5489578247
 20
48.83967208859999
  0
LWPOLYLINE
  5
2E6
330
1FF
100
AcDbEntity
  8
0
  6
Continuous
 62
   142
100
AcDbPolyline
 90
        2
 70
     0
 43
0.4999999847
 10
20.4222869873
 20
61.8912696838
 10
19.0171508789
 20
63.10364913939999
  0
LWPOLYLINE
  5
2E7
330
1FF
100
AcDbEntity
  8
0
  6
Continuous
 62
   142
100
AcDbPolyline
 90
        2
 70
     0
 43
0.4999999847
 10
13.5190811157
 20
67.847492218
 10
17.2277145386
 20
64.64760971069999
  0
LWPOLYLINE
  5
2E8
330
1FF
100
AcDbEntity
  8
0
  6
Continuous
 62
   142
100
AcDbPolyline
 90
        2
 70
     0
 43
0.4999999847
 10
26.7981796265
 20
56.3900337219
 10
28.1126556396
 20
55.25587844850001
  0
LWPOLYLINE
  5
2E9
330
1FF
100
AcDbEntity
  8
0
  6
Continuous
 62
   142
100
AcDbPolyline
 90
        2
 70
     0
 43
0.4999999847
 10
29.6383285522
 20
53.9394950867
 10
31.0109710693
 20
52.7551383972
  0
LWPOLYLINE
  5
2EA
330
1FF
100
AcDbEntity
  8
0
  6
Continuous
 62
   142
100
AcDbPolyline
 90
        2
 70
     0
 43
0.4999999847
 10
50.7086486816
 20
35.7595787048
 10
52.2650909424
 20
34.41664505
  0
LWPOLYLINE
  5
2EB
330
1FF
100
AcDbEntity
  8
0
  6
Continuous
 62
   142
100
AcDbPolyline
 90
        2
 70
     0
 43
0.4999999847
 10
58.25835418699998
 20
29.2455406189
 10
63.3279418945
 20
24.8713874817
  0
LWPOLYLINE
  5
2EC
330
1FF
100
AcDbEntity
  8
0
  6
Continuous
 62
   142
100
AcDbPolyline
 90
        2
 70
     0
 43
0.4999999847
 10
67.33137512209999
 20
21.4171485901
 10
64.1007537842
 20
24.2046089172
  0
LWPOLYLINE
  5
2ED
330
1FF
100
AcDbEntity
  8
0
  6
Continuous
 62
   142
100
AcDbPolyline
 90
        2
 70
     0
 43
0.4999999847
 10
39.6341705322
 20
45.31488418579999
 10
41.1393890381
 20
44.01613235470001
  0
LWPOLYLINE
  5
2EE
330
1FF
100
AcDbEntity
  8
0
  6
Continuous
 62
   142
100
AcDbPolyline
 90
        2
 70
     0
 43
0.4999999847
 10
75.6381835938
 20
14.2498664856
 10
73.93817138670002
 20
15.7166786194
  0
LWPOLYLINE
  5
2EF
330
1FF
100
AcDbEntity
  8
0
  6
Continuous
 62
   142
100
AcDbPolyline
 90
        2
 70
     0
 43
0.4999999847
 10
47.4271850586
 20
38.5909004211
 10
48.9527359009
 20
37.2746086121
  0
LWPOLYLINE
  5
2F0
330
1FF
100
AcDbEntity
  8
0
  6
Continuous
 62
   142
100
AcDbPolyline
 90
        2
 70
     0
 43
0.4999999847
 10
71.49719238279999
 20
17.8228034973
 10
69.675491333
 20
19.394618988
  0
LWPOLYLINE
  5
2F1
330
1FF
100
AcDbEntity
  8
0
  6
Continuous
 62
   142
100
AcDbPolyline
 90
        2
 70
     0
 43
0.4999999847
 10
55.7447357178
 20
31.578540802
 10
55.15368652340001
 20
32.0988273621
  0
LWPOLYLINE
  5
2F2
330
1FF
100
AcDbEntity
  8
0
  6
Continuous
 62
   142
100
AcDbPolyline
 90
        2
 70
     0
 43
0.4999999847
 10
24.7046966553
 20
58.286441803
 10
24.1950073242
 20
58.7460289001
  0
LWPOLYLINE
  5
2F3
330
1FF
100
AcDbEntity
  8
0
  6
Continuous
 62
   142
100
AcDbPolyline
 90
        2
 70
     0
 43
0.4999999847
 10
44.5893478394
 20
41.0390663147
 10
44.5848236084
 20
41.0433540344
  0
LWPOLYLINE
  5
2F4
330
1FF
100
AcDbEntity
  8
0
  6
Continuous
 62
   142
100
AcDbPolyline
 90
        2
 70
     0
 43
0.4999999847
 10
45.0794219971
 20
40.5488014221
 10
44.5893478394
 20
41.0390663147
  0
LWPOLYLINE
  5
2F5
330
1FF
100
AcDbEntity
  8
0
  6
Continuous
 62
   142
100
AcDbPolyline
 90
        2
 70
     0
 43
0.4999999847
 10
56.0673370361
 20
31.250202179
 10
55.7447357178
 20
31.578540802
  0
LWPOLYLINE
  5
2F6
330
1FF
100
AcDbEntity
  8
0
  6
Continuous
 62
   142
100
AcDbPolyline
 90
        2
 70
     0
 43
0.4999999847
 10
67.65003967289999
 20
21.0639228821
 10
67.33137512209999
 20
21.4171485901
  0
LWPOLYLINE
  5
2F7
330
1FF
100
AcDbEntity
  8
0
  6
Continuous
 62
   142
100
AcDbPolyline
 90
        2
 70
     0
 43
0.4999999847
 10
25.7129821777
 20
64.7174339294
 10
26.126739502
 20
64.25806808469999
  0
LWPOLYLINE
  5
2F8
330
1FF
100
AcDbEntity
  8
0
  6
Continuous
 62
   142
100
AcDbPolyline
 90
        2
 70
     0
 43
0.4999999847
 10
24.9985961914
 20
57.95251846310001
 10
24.7046966553
 20
58.286441803
  0
LWPOLYLINE
  5
2F9
330
1FF
100
AcDbEntity
  8
0
  6
Continuous
 62
   142
100
AcDbPolyline
 90
        2
 70
     0
 43
0.4999999847
 10
56.46559906010001
 20
30.780040741
 10
56.0673370361
 20
31.250202179
  0
LWPOLYLINE
  5
2FA
330
1FF
100
AcDbEntity
  8
0
  6
Continuous
 62
   142
100
AcDbPolyline
 90
        2
 70
     0
 43
0.4999999847
 10
50.8662872314
 20
25.7882881165
 10
50.96648406979999
 20
25.6677055359
  0
LWPOLYLINE
  5
2FB
330
1FF
100
AcDbEntity
  8
0
  6
Continuous
 62
   142
100
AcDbPolyline
 90
        2
 70
     0
 43
0.4999999847
 10
60.5210571289
 20
17.4592475891
 10
60.6372680664
 20
17.3177604675
  0
LWPOLYLINE
  5
2FC
330
1FF
100
AcDbEntity
  8
0
  6
Continuous
 62
   142
100
AcDbPolyline
 90
        2
 70
     0
 43
0.4999999847
 10
68.1602020264
 20
20.4423866272
 10
67.65003967289999
 20
21.0639228821
  0
LWPOLYLINE
  5
2FD
330
1FF
100
AcDbEntity
  8
0
  6
Continuous
 62
   142
100
AcDbPolyline
 90
        2
 70
     0
 43
0.4999999847
 10
25.4510803223
 20
65.038066864
 10
25.7129821777
 20
64.7174339294
  0
LWPOLYLINE
  5
2FE
330
1FF
100
AcDbEntity
  8
0
  6
Continuous
 62
   142
100
AcDbPolyline
 90
        2
 70
     0
 43
0.4999999847
 10
49.20059204100001
 20
27.8523674011
 10
49.36985778810001
 20
27.6392631531
  0
LWPOLYLINE
  5
2FF
330
1FF
100
AcDbEntity
  8
0
  6
Continuous
 62
   142
100
AcDbPolyline
 90
        2
 70
     0
 43
0.4999999847
 10
6.597572326699999
 20
95.18156814580001
 10
6.882621765099998
 20
94.82107925420001
  0
LWPOLYLINE
  5
300
330
1FF
100
AcDbEntity
  8
0
  6
Continuous
 62
   142
100
AcDbPolyline
 90
        2
 70
     0
 43
0.4999999847
 10
45.41635894779998
 20
40.11885452269999
 10
45.0794219971
 20
40.5488014221
  0
LWPOLYLINE
  5
301
330
1FF
100
AcDbEntity
  8
0
  6
Continuous
 62
   142
100
AcDbPolyline
 90
        2
 70
     0
 43
0.4999999847
 10
49.2709350586
 20
24.7480506897
 10
49.4442977905
 20
24.5262641907
  0
LWPOLYLINE
  5
302
330
1FF
100
AcDbEntity
  8
0
  6
Continuous
 62
   142
100
AcDbPolyline
 90
        2
 70
     0
 43
0.4999999847
 10
48.5194244385
 20
25.6918373108
 10
48.8947753906
 20
25.2104682922
  0
LWPOLYLINE
  5
303
330
1FF
100
AcDbEntity
  8
0
  6
Continuous
 62
   142
100
AcDbPolyline
 90
        2
 70
     0
 43
0.4999999847
 10
6.3436584473
 20
95.51321792600001
 10
6.597572326699999
 20
95.18156814580001
  0
LWPOLYLINE
  5
304
330
1FF
100
AcDbEntity
  8
0
  6
Continuous
 62
   142
100
AcDbPolyline
 90
        2
 70
     0
 43
0.4999999847
 10
12.0684127808
 20
79.04658889770002
 10
12.364074707
 20
78.6508674622
  0
LWPOLYLINE
  5
305
330
1FF
100
AcDbEntity
  8
0
  6
Continuous
 62
   142
100
AcDbPolyline
 90
        2
 70
     0
 43
0.4999999847
 10
48.1503067017
 20
26.1930732727
 10
48.5194244385
 20
25.6918373108
  0
LWPOLYLINE
  5
306
330
1FF
100
AcDbEntity
  8
0
  6
Continuous
 62
   142
100
AcDbPolyline
 90
        2
 70
     0
 43
0.4999999847
 10
47.6638565063
 20
23.7815818787
 10
47.86556243899999
 20
23.4978752136
  0
LWPOLYLINE
  5
307
330
1FF
100
AcDbEntity
  8
0
  6
Continuous
 62
   142
100
AcDbPolyline
 90
        2
 70
     0
 43
0.4999999847
 10
60.6372680664
 20
17.3177604675
 10
60.80540466310001
 20
17.0746879578
  0
LWPOLYLINE
  5
308
330
1FF
100
AcDbEntity
  8
0
  6
Continuous
 62
   142
100
AcDbPolyline
 90
        2
 70
     0
 43
0.4999999847
 10
49.4442977905
 20
24.5262641907
 10
49.6014175415
 20
24.2971076965
  0
LWPOLYLINE
  5
309
330
1FF
100
AcDbEntity
  8
0
  6
Continuous
 62
   142
100
AcDbPolyline
 90
        2
 70
     0
 43
0.4999999847
 10
38.2002258301
 20
37.30507278440001
 10
38.3748855591
 20
37.048625946
  0
LWPOLYLINE
  5
30A
330
1FF
100
AcDbEntity
  8
0
  6
Continuous
 62
   142
100
AcDbPolyline
 90
        2
 70
     0
 43
0.4999999847
 10
49.36985778810001
 20
27.6392631531
 10
49.5197982788
 20
27.417591095
  0
LWPOLYLINE
  5
30B
330
1FF
100
AcDbEntity
  8
0
  6
Continuous
 62
   142
100
AcDbPolyline
 90
        2
 70
     0
 43
0.4999999847
 10
47.7865753174
 20
26.7369651794
 10
48.1503067017
 20
26.1930732727
  0
LWPOLYLINE
  5
30C
330
1FF
100
AcDbEntity
  8
0
  6
Continuous
 62
   142
100
AcDbPolyline
 90
        2
 70
     0
 43
0.4999999847
 10
25.258102417
 20
57.5552864075
 10
24.9985961914
 20
57.95251846310001
  0
LWPOLYLINE
  5
30D
330
1FF
100
AcDbEntity
  8
0
  6
Continuous
 62
   142
100
AcDbPolyline
 90
        2
 70
     0
 43
0.4999999847
 10
42.32337188719998
 20
28.5538978577
 10
42.1321563721
 20
28.8492088318
  0
LWPOLYLINE
  5
30E
330
1FF
100
AcDbEntity
  8
0
  6
Continuous
 62
   142
100
AcDbPolyline
 90
        2
 70
     0
 43
0.4999999847
 10
47.6098709106
 20
27.0369148254
 10
47.7865753174
 20
26.7369651794
  0
LWPOLYLINE
  5
30F
330
1FF
100
AcDbEntity
  8
0
  6
Continuous
 62
   142
100
AcDbPolyline
 90
        2
 70
     0
 43
0.4999999847
 10
23.50670623780001
 20
68.85257339479998
 10
23.6180419922
 20
68.66234207149999
  0
LWPOLYLINE
  5
310
330
1FF
100
AcDbEntity
  8
0
  6
Continuous
 62
   142
100
AcDbPolyline
 90
        2
 70
     0
 43
0.4999999847
 10
38.3748855591
 20
37.048625946
 10
38.5352020264
 20
36.768901825
  0
LWPOLYLINE
  5
311
330
1FF
100
AcDbEntity
  8
0
  6
Continuous
 62
   142
100
AcDbPolyline
 90
        2
 70
     0
 43
0.4999999847
 10
49.6014175415
 20
24.2971076965
 10
49.7373275757
 20
24.0572547913
  0
LWPOLYLINE
  5
312
330
1FF
100
AcDbEntity
  8
0
  6
Continuous
 62
   142
100
AcDbPolyline
 90
        2
 70
     0
 43
0.4999999847
 10
47.47441101069999
 20
24.1170539856
 10
47.6638565063
 20
23.7815818787
  0
LWPOLYLINE
  5
313
330
1FF
100
AcDbEntity
  8
0
  6
Continuous
 62
   142
100
AcDbPolyline
 90
        2
 70
     0
 43
0.4999999847
 10
6.861763000499999
 20
79.4367713928
 10
7.583000183099999
 20
78.1489448547
  0
LWPOLYLINE
  5
314
330
1FF
100
AcDbEntity
  8
0
  6
Continuous
 62
   142
100
AcDbPolyline
 90
        2
 70
     0
 43
0.4999999847
 10
7.583000183099999
 20
78.1489448547
 10
8.5936126709
 20
76.34436416629998
  0
LWPOLYLINE
  5
315
330
1FF
100
AcDbEntity
  8
0
  6
Continuous
 62
   142
100
AcDbPolyline
 90
        2
 70
     0
 43
0.4999999847
 10
42.1321563721
 20
28.8492088318
 10
41.9635772705
 20
29.1662025452
  0
LWPOLYLINE
  5
316
330
1FF
100
AcDbEntity
  8
0
  6
Continuous
 62
   142
100
AcDbPolyline
 90
        2
 70
     0
 43
0.4999999847
 10
18.5812225342
 20
54.92660140989999
 10
18.6894226074
 20
54.7210731506
  0
LWPOLYLINE
  5
317
330
1FF
100
AcDbEntity
  8
0
  6
Continuous
 62
   142
100
AcDbPolyline
 90
        2
 70
     0
 43
0.4999999847
 10
23.6180419922
 20
68.66234207149999
 10
23.930847168
 20
68.0624275208
  0
LWPOLYLINE
  5
318
330
1FF
100
AcDbEntity
  8
0
  6
Continuous
 62
   142
100
AcDbPolyline
 90
        2
 70
     0
 43
0.4999999847
 10
25.5394973755
 20
57.01045608520001
 10
25.258102417
 20
57.5552864075
  0
LWPOLYLINE
  5
319
330
1FF
100
AcDbEntity
  8
0
  6
Continuous
 62
   142
100
AcDbPolyline
 90
        2
 70
     0
 43
0.3500000019
 10
11.3231582642
 20
80.51730728149998
 10
12.0684127808
 20
79.04658889770002
  0
LWPOLYLINE
  5
31A
330
1FF
100
AcDbEntity
  8
0
  6
Continuous
 62
   142
100
AcDbPolyline
 90
        2
 70
     0
 43
0.4999999847
 10
16.8552093506
 20
52.1456184387
 10
16.9891433716
 20
51.8421592712
  0
LWPOLYLINE
  5
31B
330
1FF
100
AcDbEntity
  8
0
  6
Continuous
 62
   142
100
AcDbPolyline
 90
        2
 70
     0
 43
0.4999999847
 10
6.2704315186
 20
95.6819343567
 10
6.3436584473
 20
95.51321792600001
  0
LWPOLYLINE
  5
31C
330
1FF
100
AcDbEntity
  8
0
  6
Continuous
 62
   142
100
AcDbPolyline
 90
        2
 70
     0
 43
0.4999999847
 10
16.77947235109999
 20
55.0343208313
 10
16.91030120849999
 20
54.7243537903
  0
LWPOLYLINE
  5
31D
330
1FF
100
AcDbEntity
  8
0
  6
Continuous
 62
   142
100
AcDbPolyline
 90
        2
 70
     0
 43
0.4999999847
 10
18.8166427612
 20
51.9084434509
 10
18.9136123657
 20
51.6782264709
  0
LWPOLYLINE
  5
31E
330
1FF
100
AcDbEntity
  8
0
  6
Continuous
 62
   142
100
AcDbPolyline
 90
        2
 70
     0
 43
0.4999999847
 10
4.604095458999998
 20
100.3717842102
 10
4.5353088379
 20
100.5527534485
  0
LWPOLYLINE
  5
31F
330
1FF
100
AcDbEntity
  8
0
  6
Continuous
 62
   142
100
AcDbPolyline
 90
        2
 70
     0
 43
0.4999999847
 10
18.6894226074
 20
54.7210731506
 10
18.7705993652
 20
54.5063209534
  0
LWPOLYLINE
  5
320
330
1FF
100
AcDbEntity
  8
0
  6
Continuous
 62
   142
100
AcDbPolyline
 90
        2
 70
     0
 43
0.4999999847
 10
16.7413864136
 20
52.4589500427
 10
16.8552093506
 20
52.1456184387
  0
LWPOLYLINE
  5
321
330
1FF
100
AcDbEntity
  8
0
  6
Continuous
 62
   142
100
AcDbPolyline
 90
        2
 70
     0
 43
0.4999999847
 10
4.537605285599998
 20
100.5589179993
 10
6.2704315186
 20
95.6819343567
  0
LWPOLYLINE
  5
322
330
1FF
100
AcDbEntity
  8
0
  6
Continuous
 62
   142
100
AcDbPolyline
 90
        2
 70
     0
 43
0.4999999847
 10
18.9136123657
 20
51.6782264709
 10
18.9903411865
 20
51.4403648376
  0
LWPOLYLINE
  5
323
330
1FF
100
AcDbEntity
  8
0
  6
Continuous
 62
   142
100
AcDbPolyline
 90
        2
 70
     0
 43
0.4999999847
 10
16.677986145
 20
55.36268997189999
 10
16.77947235109999
 20
55.0343208313
  0
LWPOLYLINE
  5
324
330
1FF
100
AcDbEntity
  8
0
  6
Continuous
 62
   142
100
AcDbPolyline
 90
        2
 70
     0
 43
0.4999999847
 10
6.509994506799999
 20
95.47101211549998
 10
6.597572326699999
 20
95.18156814580001
  0
LWPOLYLINE
  5
325
330
1FF
100
AcDbEntity
  8
0
  6
Continuous
 62
   142
100
AcDbPolyline
 90
        2
 70
     0
 43
0.4999999847
 10
16.651802063
 20
52.7805290222
 10
16.7413864136
 20
52.4589500427
  0
LWPOLYLINE
  5
326
330
1FF
100
AcDbEntity
  8
0
  6
Continuous
 62
   142
100
AcDbPolyline
 90
        2
 70
     0
 43
0.4999999847
 10
4.407745361299999
 20
101.0464668274
 10
4.537605285599998
 20
100.5589179993
  0
LWPOLYLINE
  5
327
330
1FF
100
AcDbEntity
  8
0
  6
Continuous
 62
   142
100
AcDbPolyline
 90
        2
 70
     0
 43
0.4999999847
 10
6.3251647949
 20
62.1780433655
 10
6.6532287598
 20
60.80875015260001
  0
LWPOLYLINE
  5
328
330
1FF
100
AcDbEntity
  8
0
  6
Continuous
 62
   142
100
AcDbPolyline
 90
        2
 70
     0
 43
0.4999999847
 10
6.1697998047
 20
63.1933555603
 10
5.364463806199998
 20
66.92089462279999
  0
LWPOLYLINE
  5
329
330
1FF
100
AcDbEntity
  8
0
  6
Continuous
 62
   142
100
AcDbPolyline
 90
        2
 70
     0
 43
0.4999999847
 10
6.6367034912
 20
60.87853622439999
 10
6.6595611572
 20
60.7707481384
  0
LWPOLYLINE
  5
32A
330
1FF
100
AcDbEntity
  8
0
  6
Continuous
 62
   142
100
AcDbPolyline
 90
        2
 70
     0
 43
0.4999999847
 10
3.817718505899998
 20
63.36136245729999
 10
3.8192596436
 20
63.35058212279998
  0
LWPOLYLINE
  5
32B
330
1FF
100
AcDbEntity
  8
0
  6
Continuous
 62
   142
100
AcDbPolyline
 90
        2
 70
     0
 43
0.4999999847
 10
5.0128097534
 20
142.0904884338
 10
5.0051040649
 20
142.2044868469
  0
LWPOLYLINE
  5
32C
330
1FF
100
AcDbEntity
  8
0
  6
Continuous
 62
   142
100
AcDbPolyline
 90
        2
 70
     0
 43
0.4999999847
 10
7.8654556274
 20
64.4393424988
 10
7.815032958999998
 20
65.2078971863
  0
LWPOLYLINE
  5
32D
330
1FF
100
AcDbEntity
  8
0
  6
Continuous
 62
   142
100
AcDbPolyline
 90
        2
 70
     0
 43
0.4999999847
 10
0.6162948608
 20
66.2620201111
 10
0.2877731323
 20
72.07999038699999
  0
LWPOLYLINE
  5
32E
330
1FF
100
AcDbEntity
  8
0
  6
Continuous
 62
   142
100
AcDbPolyline
 90
        2
 70
     0
 43
0.4999999847
 10
5.0051040649
 20
142.2044868469
 10
4.9994506836
 20
142.3344764709
  0
LWPOLYLINE
  5
32F
330
1FF
100
AcDbEntity
  8
0
  6
Continuous
 62
   142
100
AcDbPolyline
 90
        2
 70
     0
 43
0.4999999847
 10
8.7916030884
 20
71.9264564514
 10
8.84765625
 20
70.6381950378
  0
LWPOLYLINE
  5
330
330
1FF
100
AcDbEntity
  8
0
  6
Continuous
 62
   142
100
AcDbPolyline
 90
        2
 70
     0
 43
0.4999999847
 10
9.210540771499999
 20
60.67699050899999
 10
9.0975570679
 20
63.3170433044
  0
LWPOLYLINE
  5
331
330
1FF
100
AcDbEntity
  8
0
  6
Continuous
 62
   142
100
AcDbPolyline
 90
        2
 70
     0
 43
0.4999999847
 10
9.303787231399999
 20
58.3753623962
 10
9.102806091299999
 20
63.3360328674
  0
LWPOLYLINE
  5
332
330
1FF
100
AcDbEntity
  8
0
  6
Continuous
 62
   142
100
AcDbPolyline
 90
        2
 70
     0
 43
0.4999999847
 10
7.860679626499998
 20
64.4200401306
 10
7.858062744099998
 20
64.5519371033
  0
LWPOLYLINE
  5
334
330
1FF
100
AcDbEntity
  8
0
  6
Continuous
 62
   142
100
AcDbPolyline
 90
        2
 70
     0
 43
0.4999999847
 10
4.4398422241
 20
101.4593391418
 10
4.407745361299999
 20
101.0464668274
  0
LWPOLYLINE
  5
335
330
1FF
100
AcDbEntity
  8
0
  6
Continuous
 62
   142
100
AcDbPolyline
 90
        2
 70
     0
 43
0.4999999847
 10
3.7481765747
 20
140.2523231506
 10
3.676864623999998
 20
139.5053138733
  0
LWPOLYLINE
  5
336
330
1FF
100
AcDbEntity
  8
0
  6
Continuous
 62
   142
100
AcDbPolyline
 90
        2
 70
     0
 43
0.4999999847
 10
3.7166976929
 20
140.2908973694
 10
3.647789001499998
 20
139.6833992004
  0
LWPOLYLINE
  5
337
330
1FF
100
AcDbEntity
  8
0
  6
Continuous
 62
   142
100
AcDbPolyline
 90
        2
 70
     0
 43
0.4999999847
 10
0.2661895751999999
 20
164.8473854065
 10
0.0
 20
163.024723053
  0
LWPOLYLINE
  5
338
330
1FF
100
AcDbEntity
  8
0
  6
Continuous
 62
   142
100
AcDbPolyline
 90
        2
 70
     0
 43
0.4999999847
 10
3.750846862799998
 20
140.516620636
 10
3.7166976929
 20
140.2908973694
  0
LWPOLYLINE
  5
339
330
1FF
100
AcDbEntity
  8
0
  6
Continuous
 62
   142
100
AcDbPolyline
 90
        2
 70
     0
 43
0.4999999847
 10
2.5515670776
 20
178.5905952454
 10
0.2661895751999999
 20
164.8473854065
  0
LWPOLYLINE
  5
33A
330
1FF
100
AcDbEntity
  8
0
  6
Continuous
 62
   142
100
AcDbPolyline
 90
        2
 70
     0
 43
0.3500000019
 10
4.620979309099999
 20
165.2810096741
 10
4.774749755899999
 20
165.6521492004
  0
LWPOLYLINE
  5
33B
330
1FF
100
AcDbEntity
  8
0
  6
Continuous
 62
   142
100
AcDbPolyline
 90
        2
 70
     0
 43
0.4999999847
 10
2.6271820068
 20
178.6978187561
 10
2.606819152799999
 20
178.6689491272
  0
LWPOLYLINE
  5
33C
330
1FF
100
AcDbEntity
  8
0
  6
Continuous
 62
   142
100
AcDbPolyline
 90
        2
 70
     0
 43
0.4999999847
 10
2.606819152799999
 20
178.6689491272
 10
2.5515670776
 20
178.5905952454
  0
LWPOLYLINE
  5
33D
330
1FF
100
AcDbEntity
  8
0
  6
Continuous
 62
   142
100
AcDbPolyline
 90
        2
 70
     0
 43
0.4999999847
 10
53.9217758179
 20
32.72613143920001
 10
53.6234512329
 20
32.6510047913
  0
LWPOLYLINE
  5
33E
330
1FF
100
AcDbEntity
  8
0
  6
Continuous
 62
   142
100
AcDbPolyline
 90
        2
 70
     0
 43
0.4999999847
 10
45.64716339109999
 20
26.2819404602
 10
45.4480667114
 20
26.237537384
  0
LWPOLYLINE
  5
33F
330
1FF
100
AcDbEntity
  8
0
  6
Continuous
 62
   142
100
AcDbPolyline
 90
        2
 70
     0
 43
0.4999999847
 10
39.758026123
 20
31.4495811462
 10
39.9398422241
 20
31.4787940979
  0
LWPOLYLINE
  5
340
330
1FF
100
AcDbEntity
  8
0
  6
Continuous
 62
   142
100
AcDbPolyline
 90
        2
 70
     0
 43
0.4999999847
 10
32.31869506840001
 20
37.8314247131
 10
32.0908050537
 20
37.8065681458
  0
LWPOLYLINE
  5
341
330
1FF
100
AcDbEntity
  8
0
  6
Continuous
 62
   142
100
AcDbPolyline
 90
        2
 70
     0
 43
0.4999999847
 10
19.6413040161
 20
49.3437080383
 10
19.8141708374
 20
49.3342323303
  0
LWPOLYLINE
  5
342
330
1FF
100
AcDbEntity
  8
0
  6
Continuous
 62
   142
100
AcDbPolyline
 90
        2
 70
     0
 43
0.4999999847
 10
4.9230422974
 20
62.4194068909
 10
5.0660858154
 20
62.3985557556
  0
LWPOLYLINE
  5
343
330
1FF
100
AcDbEntity
  8
0
  6
Continuous
 62
   142
100
AcDbPolyline
 90
        2
 70
     0
 43
0.4999999847
 10
71.3752288818
 20
46.58040237429999
 10
71.29570007319998
 20
46.5927238464
  0
LWPOLYLINE
  5
344
330
1FF
100
AcDbEntity
  8
0
  6
Continuous
 62
   142
100
AcDbPolyline
 90
        2
 70
     0
 43
0.4999999847
 10
71.6045532227
 20
46.5448875427
 10
71.3752288818
 20
46.58040237429999
  0
LWPOLYLINE
  5
345
330
1FF
100
AcDbEntity
  8
0
  6
Continuous
 62
   142
100
AcDbPolyline
 90
        2
 70
     0
 43
0.4999999847
 10
11.5978012085
 20
60.9431495667
 10
11.4622039795
 20
60.97082138060001
  0
LWPOLYLINE
  5
346
330
1FF
100
AcDbEntity
  8
0
  6
Continuous
 62
   142
100
AcDbPolyline
 90
        2
 70
     0
 43
0.4999999847
 10
11.7206268311
 20
60.91808700560001
 10
11.5978012085
 20
60.9431495667
  0
LWPOLYLINE
  5
347
330
1FF
100
AcDbEntity
  8
0
  6
Continuous
 62
   142
100
AcDbPolyline
 90
        2
 70
     0
 43
0.4999999847
 10
3.2696609497
 20
66.4531135559
 10
3.013381958
 20
66.5135231018
  0
LWPOLYLINE
  5
348
330
1FF
100
AcDbEntity
  8
0
  6
Continuous
 62
   142
100
AcDbPolyline
 90
        2
 70
     0
 43
0.4999999847
 10
3.3685913086
 20
68.626865387
 10
3.1112060547
 20
68.68805313109999
  0
LWPOLYLINE
  5
349
330
1FF
100
AcDbEntity
  8
0
  6
Continuous
 62
   142
100
AcDbPolyline
 90
        2
 70
     0
 43
0.4999999847
 10
26.5317993164
 20
64.02933120729999
 10
27.1808853149
 20
63.8567237854
  0
LWPOLYLINE
  5
34A
330
1FF
100
AcDbEntity
  8
0
  6
Continuous
 62
   142
100
AcDbPolyline
 90
        2
 70
     0
 43
0.4999999847
 10
11.4661102295
 20
74.03609085079998
 10
11.9319610596
 20
73.8846549988
  0
LWPOLYLINE
  5
34B
330
1FF
100
AcDbEntity
  8
0
  6
Continuous
 62
   142
100
AcDbPolyline
 90
        2
 70
     0
 43
0.4999999847
 10
11.9319610596
 20
73.8846549988
 10
13.7597961426
 20
73.29049301149999
  0
LWPOLYLINE
  5
34C
330
1FF
100
AcDbEntity
  8
0
  6
Continuous
 62
   142
100
AcDbPolyline
 90
        2
 70
     0
 43
0.4999999847
 10
13.7597961426
 20
73.29049301149999
 10
14.5864562988
 20
73.02177810669999
  0
LWPOLYLINE
  5
34D
330
1FF
100
AcDbEntity
  8
0
  6
Continuous
 62
   142
100
AcDbPolyline
 90
        2
 70
     0
 43
0.4999999847
 10
49.3935852051
 20
58.1613426208
 10
49.73857116699999
 20
57.9950141907
  0
LWPOLYLINE
  5
34E
330
1FF
100
AcDbEntity
  8
0
  6
Continuous
 62
   142
100
AcDbPolyline
 90
        2
 70
     0
 43
0.4999999847
 10
12.364074707
 20
78.6508674622
 10
13.1295928955
 20
78.250995636
  0
LWPOLYLINE
  5
34F
330
1FF
100
AcDbEntity
  8
0
  6
Continuous
 62
   142
100
AcDbPolyline
 90
        2
 70
     0
 43
0.4999999847
 10
34.7337875366
 20
72.56715774539998
 10
35.0230941772
 20
72.40777969359999
  0
LWPOLYLINE
  5
350
330
1FF
100
AcDbEntity
  8
0
  6
Continuous
 62
   142
100
AcDbPolyline
 90
        2
 70
     0
 43
0.4999999847
 10
6.882621765099998
 20
94.82107925420001
 10
12.686958313
 20
91.30243301390001
  0
LWPOLYLINE
  5
351
330
1FF
100
AcDbEntity
  8
0
  6
Continuous
 62
   142
100
AcDbPolyline
 90
        2
 70
     0
 43
0.4999999847
 10
12.7930145264
 20
91.206073761
 10
9.053535461399999
 20
93.5050392151
  0
LWPOLYLINE
  5
352
330
1FF
100
AcDbEntity
  8
0
  6
Continuous
 62
   142
100
AcDbPolyline
 90
        2
 70
     0
 43
0.4999999847
 10
47.8847503662
 20
59.4636192322
 10
49.43078613279999
 20
58.2903175354
  0
LWPOLYLINE
  5
353
330
1FF
100
AcDbEntity
  8
0
  6
Continuous
 62
   142
100
AcDbPolyline
 90
        2
 70
     0
 43
0.4999999847
 10
12.4985046387
 20
91.4697151184
 10
12.783241272
 20
91.21696853639999
  0
LWPOLYLINE
  5
354
330
1FF
100
AcDbEntity
  8
0
  6
Continuous
 62
   142
100
AcDbPolyline
 90
        2
 70
     0
 43
0.4999999847
 10
7.023826599099998
 20
94.69444656370001
 10
6.882621765099998
 20
94.82107925420001
  0
LWPOLYLINE
  5
355
330
1FF
100
AcDbEntity
  8
0
  6
Continuous
 62
   142
100
AcDbPolyline
 90
        2
 70
     0
 43
0.4999999847
 10
49.43078613279999
 20
58.2903175354
 10
50.17149353029999
 20
57.5796699524
  0
LWPOLYLINE
  5
356
330
1FF
100
AcDbEntity
  8
0
  6
Continuous
 62
   142
100
AcDbPolyline
 90
        2
 70
     0
 43
0.4999999847
 10
34.7876281738
 20
72.6510276794
 10
35.5400543213
 20
71.87373733520002
  0
LWPOLYLINE
  5
357
330
1FF
100
AcDbEntity
  8
0
  6
Continuous
 62
   142
100
AcDbPolyline
 90
        2
 70
     0
 43
0.4999999847
 10
49.7978515625
 20
57.93815231319999
 10
50.2383499146
 20
57.46400070189999
  0
LWPOLYLINE
  5
358
330
1FF
100
AcDbEntity
  8
0
  6
Continuous
 62
   142
100
AcDbPolyline
 90
        2
 70
     0
 43
0.4999999847
 10
12.783241272
 20
91.21696853639999
 10
13.5060806274
 20
90.41202163700001
  0
LWPOLYLINE
  5
359
330
1FF
100
AcDbEntity
  8
0
  6
Continuous
 62
   142
100
AcDbPolyline
 90
        2
 70
     0
 43
0.4999999847
 10
16.55676269529999
 20
99.24879837040002
 10
16.0449829102
 20
99.8195991516
  0
LWPOLYLINE
  5
35A
330
1FF
100
AcDbEntity
  8
0
  6
Continuous
 62
   142
100
AcDbPolyline
 90
        2
 70
     0
 43
0.4999999847
 10
45.544380188
 20
51.2781486511
 10
45.9539642334
 20
50.8090629578
  0
LWPOLYLINE
  5
35B
330
1FF
100
AcDbEntity
  8
0
  6
Continuous
 62
   142
100
AcDbPolyline
 90
        2
 70
     0
 43
0.4999999847
 10
24.5236816406
 20
94.27925491329999
 10
24.1367874146
 20
94.7736244202
  0
LWPOLYLINE
  5
35C
330
1FF
100
AcDbEntity
  8
0
  6
Continuous
 62
   142
100
AcDbPolyline
 90
        2
 70
     0
 43
0.4999999847
 10
45.20713806149999
 20
51.7153968811
 10
45.544380188
 20
51.2781486511
  0
LWPOLYLINE
  5
35D
330
1FF
100
AcDbEntity
  8
0
  6
Continuous
 62
   142
100
AcDbPolyline
 90
        2
 70
     0
 43
0.4999999847
 10
24.4309005737
 20
94.35887527469999
 10
24.1367874146
 20
94.7736244202
  0
LWPOLYLINE
  5
35E
330
1FF
100
AcDbEntity
  8
0
  6
Continuous
 62
   142
100
AcDbPolyline
 90
        2
 70
     0
 43
0.4999999847
 10
56.8171310425
 20
30.2635307312
 10
56.46559906010001
 20
30.780040741
  0
LWPOLYLINE
  5
35F
330
1FF
100
AcDbEntity
  8
0
  6
Continuous
 62
   142
100
AcDbPolyline
 90
        2
 70
     0
 43
0.4999999847
 10
68.47639465330001
 20
19.9661750793
 10
68.1602020264
 20
20.4423866272
  0
LWPOLYLINE
  5
360
330
1FF
100
AcDbEntity
  8
0
  6
Continuous
 62
   142
100
AcDbPolyline
 90
        2
 70
     0
 43
0.4999999847
 10
35.460319519
 20
72.0064582825
 10
36.1328735352
 20
70.88713455199999
  0
LWPOLYLINE
  5
361
330
1FF
100
AcDbEntity
  8
0
  6
Continuous
 62
   142
100
AcDbPolyline
 90
        2
 70
     0
 43
0.4999999847
 10
45.70030212399999
 20
39.6385917664
 10
45.41635894779998
 20
40.11885452269999
  0
LWPOLYLINE
  5
362
330
1FF
100
AcDbEntity
  8
0
  6
Continuous
 62
   142
100
AcDbPolyline
 90
        2
 70
     0
 43
0.4999999847
 10
22.3241882324
 20
82.12015151979999
 10
21.6045074463
 20
83.37855911250001
  0
LWPOLYLINE
  5
363
330
1FF
100
AcDbEntity
  8
0
  6
Continuous
 62
   142
100
AcDbPolyline
 90
        2
 70
     0
 43
0.4999999847
 10
21.6045074463
 20
83.37855911250001
 10
21.4380874634
 20
83.6695899963
  0
LWPOLYLINE
  5
364
330
1FF
100
AcDbEntity
  8
0
  6
Continuous
 62
   142
100
AcDbPolyline
 90
        2
 70
     0
 43
0.4999999847
 10
16.2529754639
 20
99.5876197815
 10
15.8089523315
 20
100.3640937805
  0
LWPOLYLINE
  5
365
330
1FF
100
AcDbEntity
  8
0
  6
Continuous
 62
   142
100
AcDbPolyline
 90
        2
 70
     0
 43
0.4999999847
 10
60.80540466310001
 20
17.0746879578
 10
60.943572998
 20
16.8320121765
  0
LWPOLYLINE
  5
366
330
1FF
100
AcDbEntity
  8
0
  6
Continuous
 62
   142
100
AcDbPolyline
 90
        2
 70
     0
 43
0.4999999847
 10
49.5197982788
 20
27.417591095
 10
49.6478652954
 20
27.1804771423
  0
LWPOLYLINE
  5
367
330
1FF
100
AcDbEntity
  8
0
  6
Continuous
 62
   142
100
AcDbPolyline
 90
        2
 70
     0
 43
0.4999999847
 10
25.9426803589
 20
91.58255386350001
 10
25.1797790527
 20
92.99576187129998
  0
LWPOLYLINE
  5
368
330
1FF
100
AcDbEntity
  8
0
  6
Continuous
 62
   142
100
AcDbPolyline
 90
        2
 70
     0
 43
0.4999999847
 10
57.1207046509
 20
29.68907547
 10
56.8171310425
 20
30.2635307312
  0
LWPOLYLINE
  5
369
330
1FF
100
AcDbEntity
  8
0
  6
Continuous
 62
   142
100
AcDbPolyline
 90
        2
 70
     0
 43
0.4999999847
 10
47.4428634644
 20
27.3587379456
 10
47.6098709106
 20
27.0369148254
  0
LWPOLYLINE
  5
36A
330
1FF
100
AcDbEntity
  8
0
  6
Continuous
 62
   142
100
AcDbPolyline
 90
        2
 70
     0
 43
0.4999999847
 10
13.5060806274
 20
90.41202163700001
 10
13.9571990967
 20
89.53096389770001
  0
LWPOLYLINE
  5
36B
330
1FF
100
AcDbEntity
  8
0
  6
Continuous
 62
   142
100
AcDbPolyline
 90
        2
 70
     0
 43
0.4999999847
 10
23.6156845093
 20
68.68426132199998
 10
24.8843002319
 20
66.18113327029999
  0
LWPOLYLINE
  5
36C
330
1FF
100
AcDbEntity
  8
0
  6
Continuous
 62
   142
100
AcDbPolyline
 90
        2
 70
     0
 43
0.4999999847
 10
23.6081542969
 20
68.754825592
 10
25.4510803223
 20
65.038066864
  0
LWPOLYLINE
  5
36D
330
1FF
100
AcDbEntity
  8
0
  6
Continuous
 62
   142
100
AcDbPolyline
 90
        2
 70
     0
 43
0.4999999847
 10
38.5352020264
 20
36.768901825
 10
38.6765060425
 20
36.4730949402
  0
LWPOLYLINE
  5
36E
330
1FF
100
AcDbEntity
  8
0
  6
Continuous
 62
   142
100
AcDbPolyline
 90
        2
 70
     0
 43
0.4999999847
 10
45.97757720949998
 20
39.0408592224
 10
45.70030212399999
 20
39.6385917664
  0
LWPOLYLINE
  5
36F
330
1FF
100
AcDbEntity
  8
0
  6
Continuous
 62
   142
100
AcDbPolyline
 90
        2
 70
     0
 43
0.4999999847
 10
41.9635772705
 20
29.1662025452
 10
41.8181991577
 20
29.4907798767
  0
LWPOLYLINE
  5
370
330
1FF
100
AcDbEntity
  8
0
  6
Continuous
 62
   142
100
AcDbPolyline
 90
        2
 70
     0
 43
0.4999999847
 10
49.7373275757
 20
24.0572547913
 10
49.84818267819999
 20
23.8073539734
  0
LWPOLYLINE
  5
371
330
1FF
100
AcDbEntity
  8
0
  6
Continuous
 62
   142
100
AcDbPolyline
 90
        2
 70
     0
 43
0.4999999847
 10
47.3237380981
 20
24.4634284973
 10
47.47441101069999
 20
24.1170539856
  0
LWPOLYLINE
  5
372
330
1FF
100
AcDbEntity
  8
0
  6
Continuous
 62
   142
100
AcDbPolyline
 90
        2
 70
     0
 43
0.4999999847
 10
47.292755127
 20
27.7129478455
 10
47.4428634644
 20
27.3587379456
  0
LWPOLYLINE
  5
373
330
1FF
100
AcDbEntity
  8
0
  6
Continuous
 62
   142
100
AcDbPolyline
 90
        2
 70
     0
 43
0.4999999847
 10
49.6478652954
 20
27.1804771423
 10
49.7559967041
 20
26.9239387512
  0
LWPOLYLINE
  5
374
330
1FF
100
AcDbEntity
  8
0
  6
Continuous
 62
   142
100
AcDbPolyline
 90
        2
 70
     0
 43
0.4999999847
 10
38.6765060425
 20
36.4730949402
 10
38.7984542847
 20
36.1637306213
  0
LWPOLYLINE
  5
375
330
1FF
100
AcDbEntity
  8
0
  6
Continuous
 62
   142
100
AcDbPolyline
 90
        2
 70
     0
 43
0.4999999847
 10
25.7138061523
 20
56.55984878539999
 10
25.5394973755
 20
57.01045608520001
  0
LWPOLYLINE
  5
376
330
1FF
100
AcDbEntity
  8
0
  6
Continuous
 62
   142
100
AcDbPolyline
 90
        2
 70
     0
 43
0.4999999847
 10
15.8089523315
 20
100.3640937805
 10
15.408241272
 20
101.4131355286
  0
LWPOLYLINE
  5
377
330
1FF
100
AcDbEntity
  8
0
  6
Continuous
 62
   142
100
AcDbPolyline
 90
        2
 70
     0
 43
0.4999999847
 10
41.8181991577
 20
29.4907798767
 10
41.693687439
 20
29.81848526
  0
LWPOLYLINE
  5
378
330
1FF
100
AcDbEntity
  8
0
  6
Continuous
 62
   142
100
AcDbPolyline
 90
        2
 70
     0
 43
0.4999999847
 10
33.6231842041
 20
36.3277702332
 10
31.5988922119
 20
41.9659004211
  0
LWPOLYLINE
  5
379
330
1FF
100
AcDbEntity
  8
0
  6
Continuous
 62
   142
100
AcDbPolyline
 90
        2
 70
     0
 43
0.4999999847
 10
37.9370193481
 20
46.7792167664
 10
38.61211395260001
 20
44.8777961731
  0
LWPOLYLINE
  5
37A
330
1FF
100
AcDbEntity
  8
0
  6
Continuous
 62
   142
100
AcDbPolyline
 90
        2
 70
     0
 43
0.4999999847
 10
33.6204071045
 20
36.2818412781
 10
32.9048690796
 20
38.3284492493
  0
LWPOLYLINE
  5
37B
330
1FF
100
AcDbEntity
  8
0
  6
Continuous
 62
   142
100
AcDbPolyline
 90
        2
 70
     0
 43
0.4999999847
 10
13.9571990967
 20
89.53096389770001
 10
14.3120956421
 20
88.5132484436
  0
LWPOLYLINE
  5
37C
330
1FF
100
AcDbEntity
  8
0
  6
Continuous
 62
   142
100
AcDbPolyline
 90
        2
 70
     0
 43
0.4999999847
 10
38.7984542847
 20
36.1637306213
 10
38.89610290530001
 20
35.8538856506
  0
LWPOLYLINE
  5
37D
330
1FF
100
AcDbEntity
  8
0
  6
Continuous
 62
   142
100
AcDbPolyline
 90
        2
 70
     0
 43
0.4999999847
 10
18.7705993652
 20
54.5063209534
 10
18.8081970215
 20
54.3722496033
  0
LWPOLYLINE
  5
37E
330
1FF
100
AcDbEntity
  8
0
  6
Continuous
 62
   142
100
AcDbPolyline
 90
        2
 70
     0
 43
0.4999999847
 10
25.84573364260001
 20
56.0477714539
 10
25.7138061523
 20
56.55984878539999
  0
LWPOLYLINE
  5
37F
330
1FF
100
AcDbEntity
  8
0
  6
Continuous
 62
   142
100
AcDbPolyline
 90
        2
 70
     0
 43
0.4999999847
 10
11.155708313
 20
81.21243667600001
 10
11.3231582642
 20
80.51730728149998
  0
LWPOLYLINE
  5
380
330
1FF
100
AcDbEntity
  8
0
  6
Continuous
 62
   142
100
AcDbPolyline
 90
        2
 70
     0
 43
0.4999999847
 10
23.3843383789
 20
69.37720108029998
 10
23.50670623780001
 20
68.85257339479998
  0
LWPOLYLINE
  5
381
330
1FF
100
AcDbEntity
  8
0
  6
Continuous
 62
   142
100
AcDbPolyline
 90
        2
 70
     0
 43
0.4999999847
 10
12.2857513428
 20
67.3821372986
 10
11.8404998779
 20
69.2958106995
  0
LWPOLYLINE
  5
382
330
1FF
100
AcDbEntity
  8
0
  6
Continuous
 62
   142
100
AcDbPolyline
 90
        2
 70
     0
 43
0.4999999847
 10
18.9903411865
 20
51.4403648376
 10
19.0437088013
 20
51.2058143616
  0
LWPOLYLINE
  5
383
330
1FF
100
AcDbEntity
  8
0
  6
Continuous
 62
   142
100
AcDbPolyline
 90
        2
 70
     0
 43
0.4999999847
 10
25.854095459
 20
56.0101203918
 10
25.84573364260001
 20
56.0477714539
  0
LWPOLYLINE
  5
384
330
1FF
100
AcDbEntity
  8
0
  6
Continuous
 62
   142
100
AcDbPolyline
 90
        2
 70
     0
 43
0.4999999847
 10
21.091758728
 20
58.8236885071
 10
20.4222869873
 20
61.8912696838
  0
LWPOLYLINE
  5
385
330
1FF
100
AcDbEntity
  8
0
  6
Continuous
 62
   142
100
AcDbPolyline
 90
        2
 70
     0
 43
0.4999999847
 10
3.676864623999998
 20
139.5053138733
 10
3.767105102499998
 20
139.0902290344
  0
LWPOLYLINE
  5
386
330
1FF
100
AcDbEntity
  8
0
  6
Continuous
 62
   142
100
AcDbPolyline
 90
        2
 70
     0
 43
0.4999999847
 10
15.408241272
 20
101.4131355286
 10
15.1735229492
 20
102.4929542542
  0
LWPOLYLINE
  5
387
330
1FF
100
AcDbEntity
  8
0
  6
Continuous
 62
   142
100
AcDbPolyline
 90
        2
 70
     0
 43
0.4999999847
 10
13.9218597412
 20
58.93979263310001
 10
13.8492050171
 20
59.3044776917
  0
LWPOLYLINE
  5
388
330
1FF
100
AcDbEntity
  8
0
  6
Continuous
 62
   142
100
AcDbPolyline
 90
        2
 70
     0
 43
0.4999999847
 10
16.6164245605
 20
55.6735267639
 10
16.677986145
 20
55.36268997189999
  0
LWPOLYLINE
  5
389
330
1FF
100
AcDbEntity
  8
0
  6
Continuous
 62
   142
100
AcDbPolyline
 90
        2
 70
     0
 43
0.4999999847
 10
14.3120956421
 20
88.5132484436
 10
14.51284027099999
 20
87.49579238889999
  0
LWPOLYLINE
  5
38A
330
1FF
100
AcDbEntity
  8
0
  6
Continuous
 62
   142
100
AcDbPolyline
 90
        2
 70
     0
 43
0.4999999847
 10
6.445953369099998
 20
95.7983131409
 10
6.509994506799999
 20
95.47101211549998
  0
LWPOLYLINE
  5
38B
330
1FF
100
AcDbEntity
  8
0
  6
Continuous
 62
   142
100
AcDbPolyline
 90
        2
 70
     0
 43
0.4999999847
 10
13.8380737305
 20
59.37137985229999
 10
14.1084060669
 20
57.9788093567
  0
LWPOLYLINE
  5
38C
330
1FF
100
AcDbEntity
  8
0
  6
Continuous
 62
   142
100
AcDbPolyline
 90
        2
 70
     0
 43
0.4999999847
 10
14.7780380249
 20
54.49086379999999
 10
15.0336151123
 20
53.16306686399999
  0
LWPOLYLINE
  5
38D
330
1FF
100
AcDbEntity
  8
0
  6
Continuous
 62
   142
100
AcDbPolyline
 90
        2
 70
     0
 43
0.4999999847
 10
13.8076782227
 20
59.5537834167
 10
14.5481262207
 20
55.6759376526
  0
LWPOLYLINE
  5
38E
330
1FF
100
AcDbEntity
  8
0
  6
Continuous
 62
   142
100
AcDbPolyline
 90
        2
 70
     0
 43
0.4999999847
 10
13.8698348999
 20
59.5267219543
 10
14.5883102417
 20
55.44776535029999
  0
LWPOLYLINE
  5
38F
330
1FF
100
AcDbEntity
  8
0
  6
Continuous
 62
   142
100
AcDbPolyline
 90
        2
 70
     0
 43
0.4999999847
 10
16.5974197388
 20
53.09034347529999
 10
16.651802063
 20
52.7805290222
  0
LWPOLYLINE
  5
390
330
1FF
100
AcDbEntity
  8
0
  6
Continuous
 62
   142
100
AcDbPolyline
 90
        2
 70
     0
 43
0.4999999847
 10
3.647789001499998
 20
139.6833992004
 10
3.676864623999998
 20
139.5053138733
  0
LWPOLYLINE
  5
391
330
1FF
100
AcDbEntity
  8
0
  6
Continuous
 62
   142
100
AcDbPolyline
 90
        2
 70
     0
 43
0.4999999847
 10
16.5697174072
 20
53.3143577576
 10
16.5974197388
 20
53.09034347529999
  0
LWPOLYLINE
  5
392
330
1FF
100
AcDbEntity
  8
0
  6
Continuous
 62
   142
100
AcDbPolyline
 90
        2
 70
     0
 43
0.4999999847
 10
19.0437088013
 20
51.2058143616
 10
19.0702209473
 20
50.98983383180001
  0
LWPOLYLINE
  5
393
330
1FF
100
AcDbEntity
  8
0
  6
Continuous
 62
   142
100
AcDbPolyline
 90
        2
 70
     0
 43
0.4999999847
 10
6.519317627
 20
82.48338699340001
 10
6.606849670399999
 20
81.70476150510001
  0
LWPOLYLINE
  5
394
330
1FF
100
AcDbEntity
  8
0
  6
Continuous
 62
   142
100
AcDbPolyline
 90
        2
 70
     0
 43
0.4999999847
 10
6.606849670399999
 20
81.70476150510001
 10
6.806930542
 20
79.92465591430002
  0
LWPOLYLINE
  5
395
330
1FF
100
AcDbEntity
  8
0
  6
Continuous
 62
   142
100
AcDbPolyline
 90
        2
 70
     0
 43
0.4999999847
 10
6.806930542
 20
79.92465591430002
 10
6.861763000499999
 20
79.4367713928
  0
LWPOLYLINE
  5
396
330
1FF
100
AcDbEntity
  8
0
  6
Continuous
 62
   142
100
AcDbPolyline
 90
        2
 70
     0
 43
0.3500000019
 10
15.4415512085
 20
164.4516487122
 10
15.4854354858
 20
164.001789093
  0
LWPOLYLINE
  5
397
330
1FF
100
AcDbEntity
  8
0
  6
Continuous
 62
   142
100
AcDbPolyline
 90
        2
 70
     0
 43
0.4999999847
 10
16.5906906128
 20
55.96237564089999
 10
16.6164245605
 20
55.6735267639
  0
LWPOLYLINE
  5
398
330
1FF
100
AcDbEntity
  8
0
  6
Continuous
 62
   142
100
AcDbPolyline
 90
        2
 70
     0
 43
0.4999999847
 10
23.3673171997
 20
69.69876480100001
 10
23.3843383789
 20
69.37720108029998
  0
LWPOLYLINE
  5
399
330
1FF
100
AcDbEntity
  8
0
  6
Continuous
 62
   142
100
AcDbPolyline
 90
        2
 70
     0
 43
0.4999999847
 10
15.1735229492
 20
102.4929542542
 10
15.14478302
 20
103.0816230774
  0
LWPOLYLINE
  5
39A
330
1FF
100
AcDbEntity
  8
0
  6
Continuous
 62
   142
100
AcDbPolyline
 90
        2
 70
     0
 43
0.4999999847
 10
14.51284027099999
 20
87.49579238889999
 10
14.5429229736
 20
86.6153297424
  0
LWPOLYLINE
  5
39B
330
1FF
100
AcDbEntity
  8
0
  6
Continuous
 62
   142
100
AcDbPolyline
 90
        2
 70
     0
 43
0.4999999847
 10
16.0840606689
 20
62.5889701843
 10
16.1042633057
 20
61.9746360779
  0
LWPOLYLINE
  5
39C
330
1FF
100
AcDbEntity
  8
0
  6
Continuous
 62
   142
100
AcDbPolyline
 90
        2
 70
     0
 43
0.4999999847
 10
17.2277145386
 20
64.64760971069999
 10
17.2772216797
 20
63.0502967834
  0
LWPOLYLINE
  5
39D
330
1FF
100
AcDbEntity
  8
0
  6
Continuous
 62
   142
100
AcDbPolyline
 90
        2
 70
     0
 43
0.4999999847
 10
15.3678436279
 20
164.1938362122
 10
15.6517562866
 20
154.5852088928
  0
LWPOLYLINE
  5
39E
330
1FF
100
AcDbEntity
  8
0
  6
Continuous
 62
   142
100
AcDbPolyline
 90
        2
 70
     0
 43
0.4999999847
 10
21.108001709
 20
47.65382766720001
 10
20.9572601318
 20
53.5245399475
  0
LWPOLYLINE
  5
39F
330
1FF
100
AcDbEntity
  8
0
  6
Continuous
 62
   142
100
AcDbPolyline
 90
        2
 70
     0
 43
0.4999999847
 10
17.5040512085
 20
167.642414093
 10
17.5067138672
 20
167.795124054
  0
LWPOLYLINE
  5
3A0
330
1FF
100
AcDbEntity
  8
0
  6
Continuous
 62
   142
100
AcDbPolyline
 90
        2
 70
     0
 43
0.4999999847
 10
16.5946655273
 20
56.1099739075
 10
16.5906906128
 20
55.96237564089999
  0
LWPOLYLINE
  5
3A1
330
1FF
100
AcDbEntity
  8
0
  6
Continuous
 62
   142
100
AcDbPolyline
 90
        2
 70
     0
 43
0.4999999847
 10
13.5372085571
 20
117.4123268127
 10
13.5022659302
 20
116.2165870667
  0
LWPOLYLINE
  5
3A2
330
1FF
100
AcDbEntity
  8
0
  6
Continuous
 62
   142
100
AcDbPolyline
 90
        2
 70
     0
 43
0.4999999847
 10
16.5756225586
 20
53.4927864075
 10
16.5697174072
 20
53.3143577576
  0
LWPOLYLINE
  5
3A3
330
1FF
100
AcDbEntity
  8
0
  6
Continuous
 62
   142
100
AcDbPolyline
 90
        2
 70
     0
 43
0.4999999847
 10
7.815032958999998
 20
65.2078971863
 10
7.8407897949
 20
65.42592239380001
  0
LWPOLYLINE
  5
3A4
330
1FF
100
AcDbEntity
  8
0
  6
Continuous
 62
   142
100
AcDbPolyline
 90
        2
 70
     0
 43
0.4999999847
 10
7.8407897949
 20
65.42592239380001
 10
7.8547439575
 20
65.5439720154
  0
LWPOLYLINE
  5
3A5
330
1FF
100
AcDbEntity
  8
0
  6
Continuous
 62
   142
100
AcDbPolyline
 90
        2
 70
     0
 43
0.4999999847
 10
15.6517562866
 20
154.5852088928
 10
15.522819519
 20
153.4974403381
  0
LWPOLYLINE
  5
3A6
330
1FF
100
AcDbEntity
  8
0
  6
Continuous
 62
   142
100
AcDbPolyline
 90
        2
 70
     0
 43
0.4999999847
 10
4.5353088379
 20
100.5527534485
 10
4.536659240699998
 20
100.5624732971
  0
LWPOLYLINE
  5
3A7
330
1FF
100
AcDbEntity
  8
0
  6
Continuous
 62
   142
100
AcDbPolyline
 90
        2
 70
     0
 43
0.4999999847
 10
15.4544754028
 20
164.786075592
 10
15.3678436279
 20
164.1938362122
  0
LWPOLYLINE
  5
3A8
330
1FF
100
AcDbEntity
  8
0
  6
Continuous
 62
   142
100
AcDbPolyline
 90
        2
 70
     0
 43
0.4999999847
 10
4.5313644409
 20
102.051776886
 10
4.4398422241
 20
101.4593391418
  0
LWPOLYLINE
  5
3A9
330
1FF
100
AcDbEntity
  8
0
  6
Continuous
 62
   142
100
AcDbPolyline
 90
        2
 70
     0
 43
0.4999999847
 10
16.7499313354
 20
169.0338172913
 10
17.1766738892
 20
170.8931770325
  0
LWPOLYLINE
  5
3AA
330
1FF
100
AcDbEntity
  8
0
  6
Continuous
 62
   142
100
AcDbPolyline
 90
        2
 70
     0
 43
0.4999999847
 10
15.4415512085
 20
164.4516487122
 10
15.5195465088
 20
164.7522773743
  0
LWPOLYLINE
  5
3AB
330
1FF
100
AcDbEntity
  8
0
  6
Continuous
 62
   142
100
AcDbPolyline
 90
        2
 70
     0
 43
0.4999999847
 10
15.5718078613
 20
165.2082710266
 10
15.4544754028
 20
164.786075592
  0
LWPOLYLINE
  5
3AC
330
1FF
100
AcDbEntity
  8
0
  6
Continuous
 62
   142
100
AcDbPolyline
 90
        2
 70
     0
 43
0.4999999847
 10
15.5195465088
 20
164.7522773743
 10
15.5828781128
 20
164.9456520081
  0
LWPOLYLINE
  5
3AD
330
1FF
100
AcDbEntity
  8
0
  6
Continuous
 62
   142
100
AcDbPolyline
 90
        2
 70
     0
 43
0.4999999847
 10
3.7975082397
 20
140.4027442932
 10
3.7481765747
 20
140.2523231506
  0
LWPOLYLINE
  5
3AE
330
1FF
100
AcDbEntity
  8
0
  6
Continuous
 62
   142
100
AcDbPolyline
 90
        2
 70
     0
 43
0.4999999847
 10
3.8112564087
 20
140.6872596741
 10
3.750846862799998
 20
140.516620636
  0
LWPOLYLINE
  5
3AF
330
1FF
100
AcDbEntity
  8
0
  6
Continuous
 62
   142
100
AcDbPolyline
 90
        2
 70
     0
 43
0.4999999847
 10
4.026252746599998
 20
141.1003303528
 10
3.8112564087
 20
140.6872596741
  0
LWPOLYLINE
  5
3B0
330
1FF
100
AcDbEntity
  8
0
  6
Continuous
 62
   142
100
AcDbPolyline
 90
        2
 70
     0
 43
0.4999999847
 10
15.8157806396
 20
165.6568336487
 10
15.5718078613
 20
165.2082710266
  0
LWPOLYLINE
  5
3B1
330
1FF
100
AcDbEntity
  8
0
  6
Continuous
 62
   142
100
AcDbPolyline
 90
        2
 70
     0
 43
0.3500000019
 10
4.774749755899999
 20
165.6521492004
 10
5.534812927199999
 20
166.9152259827
  0
LWPOLYLINE
  5
3B2
330
1FF
100
AcDbEntity
  8
0
  6
Continuous
 62
   142
100
AcDbPolyline
 90
        2
 70
     0
 43
0.4999999847
 10
5.5568618774
 20
166.9503364563
 10
5.534812927199999
 20
166.9152259827
  0
LWPOLYLINE
  5
3B3
330
1FF
100
AcDbEntity
  8
0
  6
Continuous
 62
   142
100
AcDbPolyline
 90
        2
 70
     0
 43
0.3500000019
 10
0.2661895751999999
 20
164.8473854065
 10
1.312751769999998
 20
166.1426582336
  0
LWPOLYLINE
  5
3B4
330
1FF
100
AcDbEntity
  8
0
  6
Continuous
 62
   142
100
AcDbPolyline
 90
        2
 70
     0
 43
0.3500000019
 10
1.312751769999998
 20
166.1426582336
 10
2.0679397583
 20
167.0773048401
  0
LWPOLYLINE
  5
3B5
330
1FF
100
AcDbEntity
  8
0
  6
Continuous
 62
   142
100
AcDbPolyline
 90
        2
 70
     0
 43
0.4999999847
 10
2.7743301392
 20
178.808795929
 10
2.6271820068
 20
178.6978187561
  0
LWPOLYLINE
  5
3B6
330
1FF
100
AcDbEntity
  8
0
  6
Continuous
 62
   142
100
AcDbPolyline
 90
        2
 70
     0
 43
0.4999999847
 10
35.4588851929
 20
34.9829444885
 10
35.3544998169
 20
34.9542045593
  0
LWPOLYLINE
  5
3B7
330
1FF
100
AcDbEntity
  8
0
  6
Continuous
 62
   142
100
AcDbPolyline
 90
        2
 70
     0
 43
0.4999999847
 10
39.9398422241
 20
31.4787940979
 10
40.25001525879999
 20
31.56116867070001
  0
LWPOLYLINE
  5
3B8
330
1FF
100
AcDbEntity
  8
0
  6
Continuous
 62
   142
100
AcDbPolyline
 90
        2
 70
     0
 43
0.4999999847
 10
29.9769363403
 20
39.9556312561
 10
29.8326187134
 20
39.9252891541
  0
LWPOLYLINE
  5
3B9
330
1FF
100
AcDbEntity
  8
0
  6
Continuous
 62
   142
100
AcDbPolyline
 90
        2
 70
     0
 43
0.4999999847
 10
16.4391937256
 20
52.0470695496
 10
16.626449585
 20
52.0657997131
  0
LWPOLYLINE
  5
3BA
330
1FF
100
AcDbEntity
  8
0
  6
Continuous
 62
   142
100
AcDbPolyline
 90
        2
 70
     0
 43
0.4999999847
 10
13.2466278076
 20
54.89078140260001
 10
13.4898376465
 20
54.91100692749999
  0
LWPOLYLINE
  5
3BB
330
1FF
100
AcDbEntity
  8
0
  6
Continuous
 62
   142
100
AcDbPolyline
 90
        2
 70
     0
 43
0.4999999847
 10
47.0879898071
 20
50.37553787229999
 10
47.7051239014
 20
50.4152030945
  0
LWPOLYLINE
  5
3BC
330
1FF
100
AcDbEntity
  8
0
  6
Continuous
 62
   142
100
AcDbPolyline
 90
        2
 70
     0
 43
0.4999999847
 10
20.236328125
 20
53.25499343869999
 10
20.3728027344
 20
53.25838851930001
  0
LWPOLYLINE
  5
3BD
330
1FF
100
AcDbEntity
  8
0
  6
Continuous
 62
   142
100
AcDbPolyline
 90
        2
 70
     0
 43
0.4999999847
 10
8.0394821167
 20
59.67567825319999
 10
8.167366027799998
 20
59.67792129520001
  0
LWPOLYLINE
  5
3BF
330
1FF
100
AcDbEntity
  8
0
  6
Continuous
 62
   142
100
AcDbPolyline
 90
        2
 70
     0
 43
0.4999999847
 10
63.1615905762
 20
66.49010086060001
 10
63.8969573975
 20
66.28578567499999
  0
LWPOLYLINE
  5
3C0
330
1FF
100
AcDbEntity
  8
0
  6
Continuous
 62
   142
100
AcDbPolyline
 90
        2
 70
     0
 43
0.4999999847
 10
7.3328399658
 20
94.5481452942
 10
7.321495056199998
 20
94.5530281067
  0
LWPOLYLINE
  5
3C1
330
1FF
100
AcDbEntity
  8
0
  6
Continuous
 62
   142
100
AcDbPolyline
 90
        2
 70
     0
 43
0.4999999847
 10
7.321495056199998
 20
94.5530281067
 10
7.023826599099998
 20
94.69444656370001
  0
LWPOLYLINE
  5
3C2
330
1FF
100
AcDbEntity
  8
0
  6
Continuous
 62
   142
100
AcDbPolyline
 90
        2
 70
     0
 43
0.4999999847
 10
62.6479492188
 20
66.7559242249
 10
63.1615905762
 20
66.49010086060001
  0
LWPOLYLINE
  5
3C3
330
1FF
100
AcDbEntity
  8
0
  6
Continuous
 62
   142
100
AcDbPolyline
 90
        2
 70
     0
 43
0.4999999847
 10
23.8939971924
 20
94.9977455139
 10
23.5338287354
 20
95.20051956180001
  0
LWPOLYLINE
  5
3C4
330
1FF
100
AcDbEntity
  8
0
  6
Continuous
 62
   142
100
AcDbPolyline
 90
        2
 70
     0
 43
0.4999999847
 10
23.5338287354
 20
95.20051956180001
 10
16.3648300171
 20
99.2523078918
  0
LWPOLYLINE
  5
3C5
330
1FF
100
AcDbEntity
  8
0
  6
Continuous
 62
   142
100
AcDbPolyline
 90
        2
 70
     0
 43
0.4999999847
 10
16.9845962524
 20
98.90202713010001
 10
16.4481201172
 20
99.336856842
  0
LWPOLYLINE
  5
3C6
330
1FF
100
AcDbEntity
  8
0
  6
Continuous
 62
   142
100
AcDbPolyline
 90
        2
 70
     0
 43
0.4999999847
 10
24.1367874146
 20
94.7736244202
 10
23.8939971924
 20
94.9977455139
  0
LWPOLYLINE
  5
3C7
330
1FF
100
AcDbEntity
  8
0
  6
Continuous
 62
   142
100
AcDbPolyline
 90
        2
 70
     0
 43
0.4999999847
 10
16.4861831665
 20
111.2549171448
 10
17.2293624878
 20
110.495059967
  0
LWPOLYLINE
  5
3C8
330
1FF
100
AcDbEntity
  8
0
  6
Continuous
 62
   142
100
AcDbPolyline
 90
        2
 70
     0
 43
0.4999999847
 10
46.7491912842
 20
86.67261123660003
 10
47.5891571045
 20
85.80185317989998
  0
LWPOLYLINE
  5
3C9
330
1FF
100
AcDbEntity
  8
0
  6
Continuous
 62
   142
100
AcDbPolyline
 90
        2
 70
     0
 43
0.4999999847
 10
62.0544281006
 20
67.3849601746
 10
62.6479492188
 20
66.7559242249
  0
LWPOLYLINE
  5
3CA
330
1FF
100
AcDbEntity
  8
0
  6
Continuous
 62
   142
100
AcDbPolyline
 90
        2
 70
     0
 43
0.4999999847
 10
28.5699157715
 20
110.0924720764
 10
29.1800537109
 20
109.1693611145
  0
LWPOLYLINE
  5
3CB
330
1FF
100
AcDbEntity
  8
0
  6
Continuous
 62
   142
100
AcDbPolyline
 90
        2
 70
     0
 43
0.4999999847
 10
17.0983276367
 20
110.7217140198
 10
17.7756118774
 20
109.5502510071
  0
LWPOLYLINE
  5
3CC
330
1FF
100
AcDbEntity
  8
0
  6
Continuous
 62
   142
100
AcDbPolyline
 90
        2
 70
     0
 43
0.4999999847
 10
50.17149353029999
 20
57.5796699524
 10
50.89133453369999
 20
56.33440017699999
  0
LWPOLYLINE
  5
3CD
330
1FF
100
AcDbEntity
  8
0
  6
Continuous
 62
   142
100
AcDbPolyline
 90
        2
 70
     0
 43
0.4999999847
 10
25.8907241821
 20
91.60499954219998
 10
24.5236816406
 20
94.27925491329999
  0
LWPOLYLINE
  5
3CE
330
1FF
100
AcDbEntity
  8
0
  6
Continuous
 62
   142
100
AcDbPolyline
 90
        2
 70
     0
 43
0.4999999847
 10
68.72003173829999
 20
19.4846916199
 10
68.47639465330001
 20
19.9661750793
  0
LWPOLYLINE
  5
3CF
330
1FF
100
AcDbEntity
  8
0
  6
Continuous
 62
   142
100
AcDbPolyline
 90
        2
 70
     0
 43
0.4999999847
 10
50.89133453369999
 20
56.33440017699999
 10
56.1024856567
 20
45.56362533569999
  0
LWPOLYLINE
  5
3D0
330
1FF
100
AcDbEntity
  8
0
  6
Continuous
 62
   142
100
AcDbPolyline
 90
        2
 70
     0
 43
0.4999999847
 10
28.9587097168
 20
85.95265579219999
 10
32.14447784420001
 20
79.3424720764
  0
LWPOLYLINE
  5
3D1
330
1FF
100
AcDbEntity
  8
0
  6
Continuous
 62
   142
100
AcDbPolyline
 90
        2
 70
     0
 43
0.4999999847
 10
3.767105102499998
 20
139.0902290344
 10
3.898765563999998
 20
138.8127632141
  0
LWPOLYLINE
  5
3D2
330
1FF
100
AcDbEntity
  8
0
  6
Continuous
 62
   142
100
AcDbPolyline
 90
        2
 70
     0
 43
0.4999999847
 10
58.4106674194
 20
40.69921493529998
 10
50.9526901245
 20
56.42020797729999
  0
LWPOLYLINE
  5
3D3
330
1FF
100
AcDbEntity
  8
0
  6
Continuous
 62
   142
100
AcDbPolyline
 90
        2
 70
     0
 43
0.4999999847
 10
17.7756118774
 20
109.5502510071
 10
26.1439666748
 20
91.88663101200001
  0
LWPOLYLINE
  5
3D4
330
1FF
100
AcDbEntity
  8
0
  6
Continuous
 62
   142
100
AcDbPolyline
 90
        2
 70
     0
 43
0.4999999847
 10
3.898765563999998
 20
138.8127632141
 10
12.8480758667
 20
119.9166145325
  0
LWPOLYLINE
  5
3D5
330
1FF
100
AcDbEntity
  8
0
  6
Continuous
 62
   142
100
AcDbPolyline
 90
        2
 70
     0
 43
0.4999999847
 10
36.1328735352
 20
70.88713455199999
 10
45.20713806149999
 20
51.7153968811
  0
LWPOLYLINE
  5
3D6
330
1FF
100
AcDbEntity
  8
0
  6
Continuous
 62
   142
100
AcDbPolyline
 90
        2
 70
     0
 43
0.4999999847
 10
51.0124588013
 20
56.5038108826
 10
58.4106674194
 20
40.69921493529998
  0
LWPOLYLINE
  5
3D7
330
1FF
100
AcDbEntity
  8
0
  6
Continuous
 62
   142
100
AcDbPolyline
 90
        2
 70
     0
 43
0.4999999847
 10
29.652923584
 20
104.582447052
 10
25.1509170532
 20
114.2776985168
  0
LWPOLYLINE
  5
3D8
330
1FF
100
AcDbEntity
  8
0
  6
Continuous
 62
   142
100
AcDbPolyline
 90
        2
 70
     0
 43
0.4999999847
 10
25.3976135254
 20
113.7464332581
 10
25.1599273682
 20
114.2650337219
  0
LWPOLYLINE
  5
3D9
330
1FF
100
AcDbEntity
  8
0
  6
Continuous
 62
   142
100
AcDbPolyline
 90
        2
 70
     0
 43
0.4999999847
 10
45.8728408813
 20
69.3302650452
 10
43.17578124999999
 20
75.28456497189998
  0
LWPOLYLINE
  5
3DA
330
1FF
100
AcDbEntity
  8
0
  6
Continuous
 62
   142
100
AcDbPolyline
 90
        2
 70
     0
 43
0.4999999847
 10
36.5692977905
 20
89.6038703918
 10
37.76426696780001
 20
86.94372940059997
  0
LWPOLYLINE
  5
3DB
330
1FF
100
AcDbEntity
  8
0
  6
Continuous
 62
   142
100
AcDbPolyline
 90
        2
 70
     0
 43
0.4999999847
 10
28.3786087036
 20
87.8333473206
 10
32.1999969482
 20
79.21731948850001
  0
LWPOLYLINE
  5
3DC
330
1FF
100
AcDbEntity
  8
0
  6
Continuous
 62
   142
100
AcDbPolyline
 90
        2
 70
     0
 43
0.4999999847
 10
60.09000396729999
 20
15.1221733093
 10
60.5217895508
 20
14.1299171448
  0
LWPOLYLINE
  5
3DD
330
1FF
100
AcDbEntity
  8
0
  6
Continuous
 62
   142
100
AcDbPolyline
 90
        2
 70
     0
 43
0.4999999847
 10
26.1439666748
 20
91.88663101200001
 10
26.50449371340001
 20
91.0172157288
  0
LWPOLYLINE
  5
3DE
330
1FF
100
AcDbEntity
  8
0
  6
Continuous
 62
   142
100
AcDbPolyline
 90
        2
 70
     0
 43
0.4999999847
 10
60.943572998
 20
16.8320121765
 10
61.04315185549999
 20
16.5905647278
  0
LWPOLYLINE
  5
3DF
330
1FF
100
AcDbEntity
  8
0
  6
Continuous
 62
   142
100
AcDbPolyline
 90
        2
 70
     0
 43
0.4999999847
 10
36.236076355
 20
90.4351844788
 10
36.5692977905
 20
89.6038703918
  0
LWPOLYLINE
  5
3E0
330
1FF
100
AcDbEntity
  8
0
  6
Continuous
 62
   142
100
AcDbPolyline
 90
        2
 70
     0
 43
0.4999999847
 10
57.3332214355
 20
29.1411094666
 10
57.1207046509
 20
29.68907547
  0
LWPOLYLINE
  5
3E1
330
1FF
100
AcDbEntity
  8
0
  6
Continuous
 62
   142
100
AcDbPolyline
 90
        2
 70
     0
 43
0.4999999847
 10
60.5217895508
 20
14.1299171448
 10
60.73962402340001
 20
13.5625953674
  0
LWPOLYLINE
  5
3E2
330
1FF
100
AcDbEntity
  8
0
  6
Continuous
 62
   142
100
AcDbPolyline
 90
        2
 70
     0
 43
0.4999999847
 10
12.8480758667
 20
119.9166145325
 10
13.2878952026
 20
118.7667427063
  0
LWPOLYLINE
  5
3E3
330
1FF
100
AcDbEntity
  8
0
  6
Continuous
 62
   142
100
AcDbPolyline
 90
        2
 70
     0
 43
0.4999999847
 10
29.1800537109
 20
109.1693611145
 10
29.695602417
 20
107.8039741516
  0
LWPOLYLINE
  5
3E4
330
1FF
100
AcDbEntity
  8
0
  6
Continuous
 62
   142
100
AcDbPolyline
 90
        2
 70
     0
 43
0.4999999847
 10
46.2208175659
 20
38.3686790466
 10
45.97757720949998
 20
39.0408592224
  0
LWPOLYLINE
  5
3E5
330
1FF
100
AcDbEntity
  8
0
  6
Continuous
 62
   142
100
AcDbPolyline
 90
        2
 70
     0
 43
0.4999999847
 10
25.1599273682
 20
114.2650337219
 10
25.0559692383
 20
114.5615272522
  0
LWPOLYLINE
  5
3E6
330
1FF
100
AcDbEntity
  8
0
  6
Continuous
 62
   142
100
AcDbPolyline
 90
        2
 70
     0
 43
0.4999999847
 10
47.205909729
 20
24.8037986755
 10
47.3237380981
 20
24.4634284973
  0
LWPOLYLINE
  5
3E7
330
1FF
100
AcDbEntity
  8
0
  6
Continuous
 62
   142
100
AcDbPolyline
 90
        2
 70
     0
 43
0.4999999847
 10
26.1110305786
 20
91.08974075319999
 10
25.9426803589
 20
91.58255386350001
  0
LWPOLYLINE
  5
3E8
330
1FF
100
AcDbEntity
  8
0
  6
Continuous
 62
   142
100
AcDbPolyline
 90
        2
 70
     0
 43
0.4999999847
 10
49.84818267819999
 20
23.8073539734
 10
49.9322814941
 20
23.550113678
  0
LWPOLYLINE
  5
3E9
330
1FF
100
AcDbEntity
  8
0
  6
Continuous
 62
   142
100
AcDbPolyline
 90
        2
 70
     0
 43
0.4999999847
 10
47.2316436768
 20
27.9007225037
 10
47.292755127
 20
27.7129478455
  0
LWPOLYLINE
  5
3EA
330
1FF
100
AcDbEntity
  8
0
  6
Continuous
 62
   142
100
AcDbPolyline
 90
        2
 70
     0
 43
0.4999999847
 10
49.7559967041
 20
26.9239387512
 10
49.8367919922
 20
26.6741294861
  0
LWPOLYLINE
  5
3EB
330
1FF
100
AcDbEntity
  8
0
  6
Continuous
 62
   142
100
AcDbPolyline
 90
        2
 70
     0
 43
0.4999999847
 10
41.693687439
 20
29.81848526
 10
41.5900344849
 20
30.14421463010001
  0
LWPOLYLINE
  5
3EC
330
1FF
100
AcDbEntity
  8
0
  6
Continuous
 62
   142
100
AcDbPolyline
 90
        2
 70
     0
 43
0.3500000019
 10
4.765510559099999
 20
164.7876930237
 10
4.654830932599999
 20
165.1654853821
  0
LWPOLYLINE
  5
3ED
330
1FF
100
AcDbEntity
  8
0
  6
Continuous
 62
   142
100
AcDbPolyline
 90
        2
 70
     0
 43
0.3500000019
 10
4.654830932599999
 20
165.1654853821
 10
4.620979309099999
 20
165.2810096741
  0
LWPOLYLINE
  5
3EE
330
1FF
100
AcDbEntity
  8
0
  6
Continuous
 62
   142
100
AcDbPolyline
 90
        2
 70
     0
 43
0.4999999847
 10
47.1165924072
 20
25.1269874573
 10
47.205909729
 20
24.8037986755
  0
LWPOLYLINE
  5
3EF
330
1FF
100
AcDbEntity
  8
0
  6
Continuous
 62
   142
100
AcDbPolyline
 90
        2
 70
     0
 43
0.4999999847
 10
46.2938461304
 20
38.0882759094
 10
46.2208175659
 20
38.3686790466
  0
LWPOLYLINE
  5
3F0
330
1FF
100
AcDbEntity
  8
0
  6
Continuous
 62
   142
100
AcDbPolyline
 90
        2
 70
     0
 43
0.4999999847
 10
41.5900344849
 20
30.14421463010001
 10
41.50690460209999
 20
30.4689064026
  0
LWPOLYLINE
  5
3F1
330
1FF
100
AcDbEntity
  8
0
  6
Continuous
 62
   142
100
AcDbPolyline
 90
        2
 70
     0
 43
0.4999999847
 10
26.50449371340001
 20
91.0172157288
 10
26.7552871704
 20
90.0252418518
  0
LWPOLYLINE
  5
3F2
330
1FF
100
AcDbEntity
  8
0
  6
Continuous
 62
   142
100
AcDbPolyline
 90
        2
 70
     0
 43
0.4999999847
 10
46.9656143188
 20
25.8670082092
 10
47.0101852417
 20
25.6889610291
  0
LWPOLYLINE
  5
3F3
330
1FF
100
AcDbEntity
  8
0
  6
Continuous
 62
   142
100
AcDbPolyline
 90
        2
 70
     0
 43
0.4999999847
 10
47.1861801147
 20
28.0837364197
 10
47.2316436768
 20
27.9007225037
  0
LWPOLYLINE
  5
3F4
330
1FF
100
AcDbEntity
  8
0
  6
Continuous
 62
   142
100
AcDbPolyline
 90
        2
 70
     0
 43
0.4999999847
 10
38.89610290530001
 20
35.8538856506
 10
38.9703826904
 20
35.5437889099
  0
LWPOLYLINE
  5
3F5
330
1FF
100
AcDbEntity
  8
0
  6
Continuous
 62
   142
100
AcDbPolyline
 90
        2
 70
     0
 43
0.4999999847
 10
26.1611328125
 20
90.86868667600001
 10
26.1110305786
 20
91.08974075319999
  0
LWPOLYLINE
  5
3F6
330
1FF
100
AcDbEntity
  8
0
  6
Continuous
 62
   142
100
AcDbPolyline
 90
        2
 70
     0
 43
0.4999999847
 10
41.50690460209999
 20
30.4689064026
 10
41.447013855
 20
30.7840003967
  0
LWPOLYLINE
  5
3F7
330
1FF
100
AcDbEntity
  8
0
  6
Continuous
 62
   142
100
AcDbPolyline
 90
        2
 70
     0
 43
0.4999999847
 10
13.2878952026
 20
118.7667427063
 10
13.5372085571
 20
117.4123268127
  0
LWPOLYLINE
  5
3F9
330
1FF
100
AcDbEntity
  8
0
  6
Continuous
 62
   142
100
AcDbPolyline
 90
        2
 70
     0
 43
0.4999999847
 10
24.4415435791
 20
94.2935066223
 10
24.4309005737
 20
94.35887527469999
  0
LWPOLYLINE
  5
3FA
330
1FF
100
AcDbEntity
  8
0
  6
Continuous
 62
   142
100
AcDbPolyline
 90
        2
 70
     0
 43
0.4999999847
 10
22.6155471802
 20
79.89117813109999
 10
22.3241882324
 20
82.12015151979999
  0
LWPOLYLINE
  5
3FB
330
1FF
100
AcDbEntity
  8
0
  6
Continuous
 62
   142
100
AcDbPolyline
 90
        2
 70
     0
 43
0.4999999847
 10
22.716255188
 20
79.1205635071
 10
22.6155471802
 20
79.89117813109999
  0
LWPOLYLINE
  5
3FD
330
1FF
100
AcDbEntity
  8
0
  6
Continuous
 62
   142
100
AcDbPolyline
 90
        2
 70
     0
 43
0.4999999847
 10
39.0221939087
 20
35.2396736145
 10
39.05449676510001
 20
34.9438896179
  0
LWPOLYLINE
  5
3FE
330
1FF
100
AcDbEntity
  8
0
  6
Continuous
 62
   142
100
AcDbPolyline
 90
        2
 70
     0
 43
0.4999999847
 10
26.7552871704
 20
90.0252418518
 10
26.8531036377
 20
89.08015823360001
  0
LWPOLYLINE
  5
3FF
330
1FF
100
AcDbEntity
  8
0
  6
Continuous
 62
   142
100
AcDbPolyline
 90
        2
 70
     0
 43
0.4999999847
 10
33.5424804688
 20
125.8677711487
 10
33.4437026978
 20
126.9365119934
  0
LWPOLYLINE
  5
400
330
1FF
100
AcDbEntity
  8
0
  6
Continuous
 62
   142
100
AcDbPolyline
 90
        2
 70
     0
 43
0.4999999847
 10
35.958114624
 20
91.9473152161
 10
36.0055770874
 20
91.4006538391
  0
LWPOLYLINE
  5
401
330
1FF
100
AcDbEntity
  8
0
  6
Continuous
 62
   142
100
AcDbPolyline
 90
        2
 70
     0
 43
0.4999999847
 10
41.4111328125
 20
31.0834770203
 10
41.3651580811
 20
31.639377594
  0
LWPOLYLINE
  5
402
330
1FF
100
AcDbEntity
  8
0
  6
Continuous
 62
   142
100
AcDbPolyline
 90
        2
 70
     0
 43
0.4999999847
 10
25.4688720703
 20
141.8478126526
 10
25.3642044067
 20
144.1562843323
  0
LWPOLYLINE
  5
403
330
1FF
100
AcDbEntity
  8
0
  6
Continuous
 62
   142
100
AcDbPolyline
 90
        2
 70
     0
 43
0.4999999847
 10
23.7961349487
 20
50.288684845
 10
23.7690353394
 20
51.2036170959
  0
LWPOLYLINE
  5
404
330
1FF
100
AcDbEntity
  8
0
  6
Continuous
 62
   142
100
AcDbPolyline
 90
        2
 70
     0
 43
0.4999999847
 10
29.2900238037
 20
124.3582038879
 10
29.3242034912
 20
123.1751441956
  0
LWPOLYLINE
  5
405
330
1FF
100
AcDbEntity
  8
0
  6
Continuous
 62
   142
100
AcDbPolyline
 90
        2
 70
     0
 43
0.4999999847
 10
23.8955764771
 20
45.1220283508
 10
23.8395233154
 20
47.7468986511
  0
LWPOLYLINE
  5
406
330
1FF
100
AcDbEntity
  8
0
  6
Continuous
 62
   142
100
AcDbPolyline
 90
        2
 70
     0
 43
0.4999999847
 10
29.9354782104
 20
106.390460968
 10
29.9348144531
 20
106.4224739075
  0
LWPOLYLINE
  5
407
330
1FF
100
AcDbEntity
  8
0
  6
Continuous
 62
   142
100
AcDbPolyline
 90
        2
 70
     0
 43
0.4999999847
 10
23.7839660645
 20
51.0554695129
 10
23.8181228638
 20
48.90385818479999
  0
LWPOLYLINE
  5
408
330
1FF
100
AcDbEntity
  8
0
  6
Continuous
 62
   142
100
AcDbPolyline
 90
        2
 70
     0
 43
0.4999999847
 10
28.1126556396
 20
55.25587844850001
 10
28.140411377
 20
53.3284797668
  0
LWPOLYLINE
  5
409
330
1FF
100
AcDbEntity
  8
0
  6
Continuous
 62
   142
100
AcDbPolyline
 90
        2
 70
     0
 43
0.4999999847
 10
28.3486633301
 20
41.0761909485
 10
28.260055542
 20
47.2472572327
  0
LWPOLYLINE
  5
40A
330
1FF
100
AcDbEntity
  8
0
  6
Continuous
 62
   142
100
AcDbPolyline
 90
        2
 70
     0
 43
0.4999999847
 10
30.7932128906
 20
38.852191925
 10
30.7302322388
 20
44.8346443176
  0
LWPOLYLINE
  5
40B
330
1FF
100
AcDbEntity
  8
0
  6
Continuous
 62
   142
100
AcDbPolyline
 90
        2
 70
     0
 43
0.4999999847
 10
31.0109710693
 20
52.7551383972
 10
31.0509033203
 20
48.7291297913
  0
LWPOLYLINE
  5
40C
330
1FF
100
AcDbEntity
  8
0
  6
Continuous
 62
   142
100
AcDbPolyline
 90
        2
 70
     0
 43
0.4999999847
 10
23.3805923462
 20
69.8675575256
 10
23.3812789917
 20
69.7787666321
  0
LWPOLYLINE
  5
40D
330
1FF
100
AcDbEntity
  8
0
  6
Continuous
 62
   142
100
AcDbPolyline
 90
        2
 70
     0
 43
0.3500000019
 10
24.9564056396
 20
140.4801063538
 10
24.9628143311
 20
141.280292511
  0
LWPOLYLINE
  5
40E
330
1FF
100
AcDbEntity
  8
0
  6
Continuous
 62
   142
100
AcDbPolyline
 90
        2
 70
     0
 43
0.4999999847
 10
19.0702209473
 20
50.98983383180001
 10
19.0660247803
 20
50.8054161072
  0
LWPOLYLINE
  5
40F
330
1FF
100
AcDbEntity
  8
0
  6
Continuous
 62
   142
100
AcDbPolyline
 90
        2
 70
     0
 43
0.4999999847
 10
19.0660247803
 20
50.8054161072
 10
19.0701904297
 20
50.9882850647
  0
LWPOLYLINE
  5
411
330
1FF
100
AcDbEntity
  8
0
  6
Continuous
 62
   142
100
AcDbPolyline
 90
        2
 70
     0
 43
0.4999999847
 10
26.1372146606
 20
90.2472572327
 10
26.1611328125
 20
90.86868667600001
  0
LWPOLYLINE
  5
412
330
1FF
100
AcDbEntity
  8
0
  6
Continuous
 62
   142
100
AcDbPolyline
 90
        2
 70
     0
 43
0.4999999847
 10
16.6073608398
 20
56.3965492249
 10
16.5946655273
 20
56.1099739075
  0
LWPOLYLINE
  5
413
330
1FF
100
AcDbEntity
  8
0
  6
Continuous
 62
   142
100
AcDbPolyline
 90
        2
 70
     0
 43
0.4999999847
 10
27.1054763794
 20
139.4148292542
 10
27.0629806519
 20
138.5735664368
  0
LWPOLYLINE
  5
416
330
1FF
100
AcDbEntity
  8
0
  6
Continuous
 62
   142
100
AcDbPolyline
 90
        2
 70
     0
 43
0.4999999847
 10
26.8294219971
 20
89.30897903440003
 10
26.7996902466
 20
88.9102973938
  0
LWPOLYLINE
  5
417
330
1FF
100
AcDbEntity
  8
0
  6
Continuous
 62
   142
100
AcDbPolyline
 90
        2
 70
     0
 43
0.4999999847
 10
26.03398132320001
 20
71.9445762634
 10
26.4549865723
 20
77.4907722473
  0
LWPOLYLINE
  5
418
330
1FF
100
AcDbEntity
  8
0
  6
Continuous
 62
   142
100
AcDbPolyline
 90
        2
 70
     0
 43
0.4999999847
 10
25.414894104
 20
141.230884552
 10
25.4688720703
 20
141.8478126526
  0
LWPOLYLINE
  5
419
330
1FF
100
AcDbEntity
  8
0
  6
Continuous
 62
   142
100
AcDbPolyline
 90
        2
 70
     0
 43
0.4999999847
 10
20.9816970825
 20
53.7526283264
 10
20.995513916
 20
53.8816184998
  0
LWPOLYLINE
  5
41A
330
1FF
100
AcDbEntity
  8
0
  6
Continuous
 62
   142
100
AcDbPolyline
 90
        2
 70
     0
 43
0.4999999847
 10
20.9572601318
 20
53.5245399475
 10
20.9816970825
 20
53.7526283264
  0
LWPOLYLINE
  5
41B
330
1FF
100
AcDbEntity
  8
0
  6
Continuous
 62
   142
100
AcDbPolyline
 90
        2
 70
     0
 43
0.4999999847
 10
14.5307540894
 20
86.97154617309998
 10
14.2791595459
 20
85.52046585079997
  0
LWPOLYLINE
  5
41C
330
1FF
100
AcDbEntity
  8
0
  6
Continuous
 62
   142
100
AcDbPolyline
 90
        2
 70
     0
 43
0.4999999847
 10
11.35659027099999
 20
82.17308425899998
 10
11.155708313
 20
81.21243667600001
  0
LWPOLYLINE
  5
41D
330
1FF
100
AcDbEntity
  8
0
  6
Continuous
 62
   142
100
AcDbPolyline
 90
        2
 70
     0
 43
0.3500000019
 10
25.0419845581
 20
140.879611969
 10
24.9564056396
 20
140.4801063538
  0
LWPOLYLINE
  5
41E
330
1FF
100
AcDbEntity
  8
0
  6
Continuous
 62
   142
100
AcDbPolyline
 90
        2
 70
     0
 43
0.4999999847
 10
4.873603820799999
 20
68.0573539734
 10
3.817718505899998
 20
63.36136245729999
  0
LWPOLYLINE
  5
41F
330
1FF
100
AcDbEntity
  8
0
  6
Continuous
 62
   142
100
AcDbPolyline
 90
        2
 70
     0
 43
0.4999999847
 10
25.3111877441
 20
140.8148841858
 10
25.414894104
 20
141.230884552
  0
LWPOLYLINE
  5
420
330
1FF
100
AcDbEntity
  8
0
  6
Continuous
 62
   142
100
AcDbPolyline
 90
        2
 70
     0
 43
0.4999999847
 10
13.5177612305
 20
116.7467079163
 10
13.3658676147
 20
116.1393318176
  0
LWPOLYLINE
  5
421
330
1FF
100
AcDbEntity
  8
0
  6
Continuous
 62
   142
100
AcDbPolyline
 90
        2
 70
     0
 43
0.4999999847
 10
15.109916687
 20
102.9525489807
 10
15.3690643311
 20
103.9116401672
  0
LWPOLYLINE
  5
422
330
1FF
100
AcDbEntity
  8
0
  6
Continuous
 62
   142
100
AcDbPolyline
 90
        2
 70
     0
 43
0.4999999847
 10
27.0629806519
 20
138.5735664368
 10
26.8448638916
 20
137.7801704407
  0
LWPOLYLINE
  5
423
330
1FF
100
AcDbEntity
  8
0
  6
Continuous
 62
   142
100
AcDbPolyline
 90
        2
 70
     0
 43
0.4999999847
 10
7.433151245099998
 20
85.28293228149998
 10
6.770393371599998
 20
83.2525520325
  0
LWPOLYLINE
  5
424
330
1FF
100
AcDbEntity
  8
0
  6
Continuous
 62
   142
100
AcDbPolyline
 90
        2
 70
     0
 43
0.4999999847
 10
6.770393371599998
 20
83.2525520325
 10
6.519317627
 20
82.48338699340001
  0
LWPOLYLINE
  5
425
330
1FF
100
AcDbEntity
  8
0
  6
Continuous
 62
   142
100
AcDbPolyline
 90
        2
 70
     0
 43
0.4999999847
 10
15.5237579346
 20
153.5053443909
 10
15.2220916748
 20
152.9859657288
  0
LWPOLYLINE
  5
426
330
1FF
100
AcDbEntity
  8
0
  6
Continuous
 62
   142
100
AcDbPolyline
 90
        2
 70
     0
 43
0.4999999847
 10
5.4009628296
 20
143.1204872131
 10
5.124717712399998
 20
142.6536750793
  0
LWPOLYLINE
  5
427
330
1FF
100
AcDbEntity
  8
0
  6
Continuous
 62
   142
100
AcDbPolyline
 90
        2
 70
     0
 43
0.4999999847
 10
5.2607955933
 20
142.8460884094
 10
4.026252746599998
 20
141.1003303528
  0
LWPOLYLINE
  5
428
330
1FF
100
AcDbEntity
  8
0
  6
Continuous
 62
   142
100
AcDbPolyline
 90
        2
 70
     0
 43
0.4999999847
 10
17.9361953735
 20
168.6304206848
 10
15.8157806396
 20
165.6568336487
  0
LWPOLYLINE
  5
429
330
1FF
100
AcDbEntity
  8
0
  6
Continuous
 62
   142
100
AcDbPolyline
 90
        2
 70
     0
 43
0.4999999847
 10
14.8891143799
 20
166.8539009094
 10
15.6620483398
 20
167.75938797
  0
LWPOLYLINE
  5
42A
330
1FF
100
AcDbEntity
  8
0
  6
Continuous
 62
   142
100
AcDbPolyline
 90
        2
 70
     0
 43
0.4999999847
 10
15.6620483398
 20
167.75938797
 10
16.7499313354
 20
169.0338172913
  0
LWPOLYLINE
  5
42B
330
1FF
100
AcDbEntity
  8
0
  6
Continuous
 62
   142
100
AcDbPolyline
 90
        2
 70
     0
 43
0.4999999847
 10
18.0288085938
 20
168.730014801
 10
17.9361953735
 20
168.6304206848
  0
LWPOLYLINE
  5
42C
330
1FF
100
AcDbEntity
  8
0
  6
Continuous
 62
   142
100
AcDbPolyline
 90
        2
 70
     0
 43
0.4999999847
 10
5.763099670399999
 20
167.148349762
 10
5.5568618774
 20
166.9503364563
  0
LWPOLYLINE
  5
42D
330
1FF
100
AcDbEntity
  8
0
  6
Continuous
 62
   142
100
AcDbPolyline
 90
        2
 70
     0
 43
0.3500000019
 10
2.0679397583
 20
167.0773048401
 10
2.501960754399998
 20
167.4038734436
  0
LWPOLYLINE
  5
42E
330
1FF
100
AcDbEntity
  8
0
  6
Continuous
 62
   142
100
AcDbPolyline
 90
        2
 70
     0
 43
0.3500000019
 10
4.099472045899998
 20
168.6058235168
 10
4.805229187
 20
169.1368293762
  0
LWPOLYLINE
  5
42F
330
1FF
100
AcDbEntity
  8
0
  6
Continuous
 62
   142
100
AcDbPolyline
 90
        2
 70
     0
 43
0.3500000019
 10
2.501960754399998
 20
167.4038734436
 10
4.099472045899998
 20
168.6058235168
  0
LWPOLYLINE
  5
430
330
1FF
100
AcDbEntity
  8
0
  6
Continuous
 62
   142
100
AcDbPolyline
 90
        2
 70
     0
 43
0.4999999847
 10
25.52674102780001
 20
43.9923820496
 10
25.4245223999
 20
43.96582412719999
  0
LWPOLYLINE
  5
431
330
1FF
100
AcDbEntity
  8
0
  6
Continuous
 62
   142
100
AcDbPolyline
 90
        2
 70
     0
 43
0.4999999847
 10
22.6843795776
 20
46.5706748962
 10
22.5827026367
 20
46.54473495479999
  0
LWPOLYLINE
  5
432
330
1FF
100
AcDbEntity
  8
0
  6
Continuous
 62
   142
100
AcDbPolyline
 90
        2
 70
     0
 43
0.4999999847
 10
48.2585754395
 20
50.5824546814
 10
48.30966186520001
 20
50.5941963196
  0
LWPOLYLINE
  5
433
330
1FF
100
AcDbEntity
  8
0
  6
Continuous
 62
   142
100
AcDbPolyline
 90
        2
 70
     0
 43
0.4999999847
 10
65.1954956055
 20
66.5133323669
 10
65.2182769775
 20
66.51805496219999
  0
LWPOLYLINE
  5
434
330
1FF
100
AcDbEntity
  8
0
  6
Continuous
 62
   142
100
AcDbPolyline
 90
        2
 70
     0
 43
0.4999999847
 10
19.8141708374
 20
49.3342323303
 10
20.1638641357
 20
49.4063835144
  0
LWPOLYLINE
  5
435
330
1FF
100
AcDbEntity
  8
0
  6
Continuous
 62
   142
100
AcDbPolyline
 90
        2
 70
     0
 43
0.4999999847
 10
28.0025482178
 20
63.9595298767
 10
28.0646286011
 20
63.96730422970001
  0
LWPOLYLINE
  5
437
330
1FF
100
AcDbEntity
  8
0
  6
Continuous
 62
   142
100
AcDbPolyline
 90
        2
 70
     0
 43
0.4999999847
 10
17.9468307495
 20
55.6970710754
 10
17.9625396729
 20
55.6989402771
  0
LWPOLYLINE
  5
438
330
1FF
100
AcDbEntity
  8
0
  6
Continuous
 62
   142
100
AcDbPolyline
 90
        2
 70
     0
 43
0.4999999847
 10
27.1808853149
 20
63.8567237854
 10
27.7359542847
 20
63.90839767460001
  0
LWPOLYLINE
  5
439
330
1FF
100
AcDbEntity
  8
0
  6
Continuous
 62
   142
100
AcDbPolyline
 90
        2
 70
     0
 43
0.4999999847
 10
63.8969573975
 20
66.28578567499999
 10
64.59513854979999
 20
66.3495292664
  0
LWPOLYLINE
  5
43A
330
1FF
100
AcDbEntity
  8
0
  6
Continuous
 62
   142
100
AcDbPolyline
 90
        2
 70
     0
 43
0.4999999847
 10
23.0470275879
 20
59.5134925842
 10
22.7767105103
 20
59.4904823303
  0
LWPOLYLINE
  5
43B
330
1FF
100
AcDbEntity
  8
0
  6
Continuous
 62
   142
100
AcDbPolyline
 90
        2
 70
     0
 43
0.4999999847
 10
10.7861175537
 20
57.3635597229
 10
10.5683059692
 20
57.3455696106
  0
LWPOLYLINE
  5
43C
330
1FF
100
AcDbEntity
  8
0
  6
Continuous
 62
   142
100
AcDbPolyline
 90
        2
 70
     0
 43
0.4999999847
 10
2.0182876587
 20
65.31682968140001
 10
1.804840087899999
 20
65.301410675
  0
LWPOLYLINE
  5
43D
330
1FF
100
AcDbEntity
  8
0
  6
Continuous
 62
   142
100
AcDbPolyline
 90
        2
 70
     0
 43
0.4999999847
 10
23.2638473511
 20
95.2111549377
 10
23.8939971924
 20
94.9977455139
  0
LWPOLYLINE
  5
43E
330
1FF
100
AcDbEntity
  8
0
  6
Continuous
 62
   142
100
AcDbPolyline
 90
        2
 70
     0
 43
0.4999999847
 10
16.4819717407
 20
111.0774726868
 10
16.8505706787
 20
110.882358551
  0
LWPOLYLINE
  5
43F
330
1FF
100
AcDbEntity
  8
0
  6
Continuous
 62
   142
100
AcDbPolyline
 90
        2
 70
     0
 43
0.4999999847
 10
46.6593551636
 20
86.54506301879999
 10
47.0990982056
 20
86.30987930299999
  0
LWPOLYLINE
  5
440
330
1FF
100
AcDbEntity
  8
0
  6
Continuous
 62
   142
100
AcDbPolyline
 90
        2
 70
     0
 43
0.4999999847
 10
21.4768600464
 20
118.9271125793
 10
22.2312164307
 20
118.1540870667
  0
LWPOLYLINE
  5
441
330
1FF
100
AcDbEntity
  8
0
  6
Continuous
 62
   142
100
AcDbPolyline
 90
        2
 70
     0
 43
0.4999999847
 10
34.7489471436
 20
102.1836891174
 10
33.9528961182
 20
103.0042304993
  0
LWPOLYLINE
  5
442
330
1FF
100
AcDbEntity
  8
0
  6
Continuous
 62
   142
100
AcDbPolyline
 90
        2
 70
     0
 43
0.4999999847
 10
11.195892334
 20
132.9030342102
 10
7.230644226099999
 20
137.4753608704
  0
LWPOLYLINE
  5
443
330
1FF
100
AcDbEntity
  8
0
  6
Continuous
 62
   142
100
AcDbPolyline
 90
        2
 70
     0
 43
0.4999999847
 10
7.230621337899999
 20
137.4753608704
 10
11.195892334
 20
132.9030342102
  0
LWPOLYLINE
  5
444
330
1FF
100
AcDbEntity
  8
0
  6
Continuous
 62
   142
100
AcDbPolyline
 90
        2
 70
     0
 43
0.4999999847
 10
22.2665557861
 20
130.6026344299
 10
11.7196121216
 20
143.7717170715
  0
LWPOLYLINE
  5
445
330
1FF
100
AcDbEntity
  8
0
  6
Continuous
 62
   142
100
AcDbPolyline
 90
        2
 70
     0
 43
0.4999999847
 10
46.7403869629
 20
100.1157417297
 10
41.0645217896
 20
107.2123298645
  0
LWPOLYLINE
  5
446
330
1FF
100
AcDbEntity
  8
0
  6
Continuous
 62
   142
100
AcDbPolyline
 90
        2
 70
     0
 43
0.4999999847
 10
30.5317306519
 20
120.3339424133
 10
32.1786193848
 20
118.2697029114
  0
LWPOLYLINE
  5
447
330
1FF
100
AcDbEntity
  8
0
  6
Continuous
 62
   142
100
AcDbPolyline
 90
        2
 70
     0
 43
0.4999999847
 10
39.956161499
 20
95.5663337708
 10
34.7489471436
 20
102.1836891174
  0
LWPOLYLINE
  5
448
330
1FF
100
AcDbEntity
  8
0
  6
Continuous
 62
   142
100
AcDbPolyline
 90
        2
 70
     0
 43
0.4999999847
 10
22.2312164307
 20
118.1540870667
 10
28.5699157715
 20
110.0924720764
  0
LWPOLYLINE
  5
449
330
1FF
100
AcDbEntity
  8
0
  6
Continuous
 62
   142
100
AcDbPolyline
 90
        2
 70
     0
 43
0.4999999847
 10
47.5891571045
 20
85.80185317989998
 10
62.0544281006
 20
67.3849601746
  0
LWPOLYLINE
  5
44A
330
1FF
100
AcDbEntity
  8
0
  6
Continuous
 62
   142
100
AcDbPolyline
 90
        2
 70
     0
 43
0.4999999847
 10
18.0890274048
 20
123.4629402161
 10
8.7745819092
 20
135.3225440979
  0
LWPOLYLINE
  5
44B
330
1FF
100
AcDbEntity
  8
0
  6
Continuous
 62
   142
100
AcDbPolyline
 90
        2
 70
     0
 43
0.4999999847
 10
41.0645217896
 20
107.2123298645
 10
40.4840240479
 20
108.0417366028
  0
LWPOLYLINE
  5
44C
330
1FF
100
AcDbEntity
  8
0
  6
Continuous
 62
   142
100
AcDbPolyline
 90
        2
 70
     0
 43
0.4999999847
 10
29.8569869995
 20
121.3962745667
 10
30.5317306519
 20
120.3339424133
  0
LWPOLYLINE
  5
44D
330
1FF
100
AcDbEntity
  8
0
  6
Continuous
 62
   142
100
AcDbPolyline
 90
        2
 70
     0
 43
0.4999999847
 10
38.0473632813
 20
118.0127296448
 10
38.5687713623
 20
117.1796760559
  0
LWPOLYLINE
  5
44E
330
1FF
100
AcDbEntity
  8
0
  6
Continuous
 62
   142
100
AcDbPolyline
 90
        2
 70
     0
 43
0.4999999847
 10
40.74475097659999
 20
94.29025650019999
 10
39.956161499
 20
95.5663337708
  0
LWPOLYLINE
  5
44F
330
1FF
100
AcDbEntity
  8
0
  6
Continuous
 62
   142
100
AcDbPolyline
 90
        2
 70
     0
 43
0.4999999847
 10
53.8091506958
 20
72.1814689636
 10
53.50473022460001
 20
72.6930122375
  0
LWPOLYLINE
  5
450
330
1FF
100
AcDbEntity
  8
0
  6
Continuous
 62
   142
100
AcDbPolyline
 90
        2
 70
     0
 43
0.4999999847
 10
53.50473022460001
 20
72.6930122375
 10
53.3766784668
 20
72.9081916809
  0
LWPOLYLINE
  5
451
330
1FF
100
AcDbEntity
  8
0
  6
Continuous
 62
   142
100
AcDbPolyline
 90
        2
 70
     0
 43
0.4999999847
 10
53.3766784668
 20
72.9081916809
 10
53.3707275391
 20
72.9181938171
  0
LWPOLYLINE
  5
452
330
1FF
100
AcDbEntity
  8
0
  6
Continuous
 62
   142
100
AcDbPolyline
 90
        2
 70
     0
 43
0.4999999847
 10
18.0797271729
 20
137.2572059631
 10
18.230140686
 20
136.9841041565
  0
LWPOLYLINE
  5
453
330
1FF
100
AcDbEntity
  8
0
  6
Continuous
 62
   142
100
AcDbPolyline
 90
        2
 70
     0
 43
0.4999999847
 10
17.6624908447
 20
138.0147590637
 10
18.0797271729
 20
137.2572059631
  0
LWPOLYLINE
  5
454
330
1FF
100
AcDbEntity
  8
0
  6
Continuous
 62
   142
100
AcDbPolyline
 90
        2
 70
     0
 43
0.4999999847
 10
38.5061798096
 20
117.309223175
 10
38.4995880127
 20
117.3214454651
  0
LWPOLYLINE
  5
455
330
1FF
100
AcDbEntity
  8
0
  6
Continuous
 62
   142
100
AcDbPolyline
 90
        2
 70
     0
 43
0.4999999847
 10
31.8237686157
 20
131.0014686584
 10
31.8312530518
 20
130.9873847961
  0
LWPOLYLINE
  5
456
330
1FF
100
AcDbEntity
  8
0
  6
Continuous
 62
   142
100
AcDbPolyline
 90
        2
 70
     0
 43
0.4999999847
 10
21.7087020874
 20
151.7375984192
 10
21.7198867798
 20
151.7153205872
  0
LWPOLYLINE
  5
457
330
1FF
100
AcDbEntity
  8
0
  6
Continuous
 62
   142
100
AcDbPolyline
 90
        2
 70
     0
 43
0.4999999847
 10
21.7198867798
 20
151.7153205872
 10
26.4114761353
 20
142.185459137
  0
LWPOLYLINE
  5
458
330
1FF
100
AcDbEntity
  8
0
  6
Continuous
 62
   142
100
AcDbPolyline
 90
        2
 70
     0
 43
0.4999999847
 10
26.4114761353
 20
142.185459137
 10
21.7087020874
 20
151.7375984192
  0
LWPOLYLINE
  5
459
330
1FF
100
AcDbEntity
  8
0
  6
Continuous
 62
   142
100
AcDbPolyline
 90
        2
 70
     0
 43
0.4999999847
 10
32.7765655518
 20
129.0489845276
 10
31.8237686157
 20
131.0014686584
  0
LWPOLYLINE
  5
45A
330
1FF
100
AcDbEntity
  8
0
  6
Continuous
 62
   142
100
AcDbPolyline
 90
        2
 70
     0
 43
0.4999999847
 10
38.4995880127
 20
117.3214454651
 10
46.2683029175
 20
101.4019050598
  0
LWPOLYLINE
  5
45B
330
1FF
100
AcDbEntity
  8
0
  6
Continuous
 62
   142
100
AcDbPolyline
 90
        2
 70
     0
 43
0.4999999847
 10
59.86972045899999
 20
73.40913009640002
 10
50.1835174561
 20
93.37286758419999
  0
LWPOLYLINE
  5
45C
330
1FF
100
AcDbEntity
  8
0
  6
Continuous
 62
   142
100
AcDbPolyline
 90
        2
 70
     0
 43
0.4999999847
 10
67.0060272217
 20
44.8333244324
 10
53.8091506958
 20
72.1814689636
  0
LWPOLYLINE
  5
45D
330
1FF
100
AcDbEntity
  8
0
  6
Continuous
 62
   142
100
AcDbPolyline
 90
        2
 70
     0
 43
0.4999999847
 10
21.7198867798
 20
151.7153205872
 10
26.3697814941
 20
142.0704994202
  0
LWPOLYLINE
  5
45E
330
1FF
100
AcDbEntity
  8
0
  6
Continuous
 62
   142
100
AcDbPolyline
 90
        2
 70
     0
 43
0.4999999847
 10
4.765510559099999
 20
164.7876930237
 10
17.6624908447
 20
138.0147590637
  0
LWPOLYLINE
  5
45F
330
1FF
100
AcDbEntity
  8
0
  6
Continuous
 62
   142
100
AcDbPolyline
 90
        2
 70
     0
 43
0.4999999847
 10
15.4001617432
 20
163.0997810364
 10
12.7233047485
 20
168.7772254944
  0
LWPOLYLINE
  5
460
330
1FF
100
AcDbEntity
  8
0
  6
Continuous
 62
   142
100
AcDbPolyline
 90
        2
 70
     0
 43
0.3500000019
 10
12.7235412598
 20
168.7766914368
 10
12.7785797119
 20
168.6550941467
  0
LWPOLYLINE
  5
461
330
1FF
100
AcDbEntity
  8
0
  6
Continuous
 62
   142
100
AcDbPolyline
 90
        2
 70
     0
 43
0.4999999847
 10
12.7233047485
 20
168.7772254944
 10
12.7235412598
 20
168.7766914368
  0
LWPOLYLINE
  5
462
330
1FF
100
AcDbEntity
  8
0
  6
Continuous
 62
   142
100
AcDbPolyline
 90
        2
 70
     0
 43
0.4999999847
 10
26.3697814941
 20
142.0704994202
 10
26.8634872437
 20
140.8293647766
  0
LWPOLYLINE
  5
463
330
1FF
100
AcDbEntity
  8
0
  6
Continuous
 62
   142
100
AcDbPolyline
 90
        2
 70
     0
 43
0.4999999847
 10
33.17416381840001
 20
128.0320472717
 10
32.7765655518
 20
129.0489845276
  0
LWPOLYLINE
  5
464
330
1FF
100
AcDbEntity
  8
0
  6
Continuous
 62
   142
100
AcDbPolyline
 90
        2
 70
     0
 43
0.4999999847
 10
40.4840240479
 20
108.0417366028
 10
39.96430206300001
 20
109.4135322571
  0
LWPOLYLINE
  5
465
330
1FF
100
AcDbEntity
  8
0
  6
Continuous
 62
   142
100
AcDbPolyline
 90
        2
 70
     0
 43
0.4999999847
 10
43.17578124999999
 20
75.28456497189998
 10
42.74060821529999
 20
76.4563941956
  0
LWPOLYLINE
  5
466
330
1FF
100
AcDbEntity
  8
0
  6
Continuous
 62
   142
100
AcDbPolyline
 90
        2
 70
     0
 43
0.4999999847
 10
68.8881835938
 20
19.0081520081
 10
68.72003173829999
 20
19.4846916199
  0
LWPOLYLINE
  5
467
330
1FF
100
AcDbEntity
  8
0
  6
Continuous
 62
   142
100
AcDbPolyline
 90
        2
 70
     0
 43
0.4999999847
 10
63.6989593506
 20
15.4561424255
 10
65.41586303709999
 20
10.1368675232
  0
LWPOLYLINE
  5
468
330
1FF
100
AcDbEntity
  8
0
  6
Continuous
 62
   142
100
AcDbPolyline
 90
        2
 70
     0
 43
0.4999999847
 10
60.73962402340001
 20
13.5625953674
 10
60.91561889649999
 20
13.008769989
  0
LWPOLYLINE
  5
469
330
1FF
100
AcDbEntity
  8
0
  6
Continuous
 62
   142
100
AcDbPolyline
 90
        2
 70
     0
 43
0.4999999847
 10
29.3242034912
 20
123.1751441956
 10
29.8569869995
 20
121.3962745667
  0
LWPOLYLINE
  5
46A
330
1FF
100
AcDbEntity
  8
0
  6
Continuous
 62
   142
100
AcDbPolyline
 90
        2
 70
     0
 43
0.4999999847
 10
41.2981338501
 20
92.43892288209998
 10
40.74475097659999
 20
94.29025650019999
  0
LWPOLYLINE
  5
46B
330
1FF
100
AcDbEntity
  8
0
  6
Continuous
 62
   142
100
AcDbPolyline
 90
        2
 70
     0
 43
0.4999999847
 10
63.5681152344
 20
15.9372673035
 10
63.6989593506
 20
15.4561424255
  0
LWPOLYLINE
  5
46C
330
1FF
100
AcDbEntity
  8
0
  6
Continuous
 62
   142
100
AcDbPolyline
 90
        2
 70
     0
 43
0.4999999847
 10
33.4437026978
 20
126.9365119934
 10
33.17416381840001
 20
128.0320472717
  0
LWPOLYLINE
  5
46D
330
1FF
100
AcDbEntity
  8
0
  6
Continuous
 62
   142
100
AcDbPolyline
 90
        2
 70
     0
 43
0.4999999847
 10
57.40393829350001
 20
28.847278595
 10
57.3332214355
 20
29.1411094666
  0
LWPOLYLINE
  5
46E
330
1FF
100
AcDbEntity
  8
0
  6
Continuous
 62
   142
100
AcDbPolyline
 90
        2
 70
     0
 43
0.4999999847
 10
36.0055770874
 20
91.4006538391
 10
36.236076355
 20
90.4351844788
  0
LWPOLYLINE
  5
46F
330
1FF
100
AcDbEntity
  8
0
  6
Continuous
 62
   142
100
AcDbPolyline
 90
        2
 70
     0
 43
0.4999999847
 10
61.04315185549999
 20
16.5905647278
 10
61.0970916748
 20
16.360912323
  0
LWPOLYLINE
  5
470
330
1FF
100
AcDbEntity
  8
0
  6
Continuous
 62
   142
100
AcDbPolyline
 90
        2
 70
     0
 43
0.4999999847
 10
60.91561889649999
 20
13.008769989
 10
61.03898620609999
 20
12.471912384
  0
LWPOLYLINE
  5
471
330
1FF
100
AcDbEntity
  8
0
  6
Continuous
 62
   142
100
AcDbPolyline
 90
        2
 70
     0
 43
0.4999999847
 10
47.0498962402
 20
25.432849884
 10
47.1165924072
 20
25.1269874573
  0
LWPOLYLINE
  5
472
330
1FF
100
AcDbEntity
  8
0
  6
Continuous
 62
   142
100
AcDbPolyline
 90
        2
 70
     0
 43
0.4999999847
 10
49.9322814941
 20
23.550113678
 10
49.98696899409999
 20
23.2979316711
  0
LWPOLYLINE
  5
473
330
1FF
100
AcDbEntity
  8
0
  6
Continuous
 62
   142
100
AcDbPolyline
 90
        2
 70
     0
 43
0.3500000019
 10
24.9628143311
 20
141.280292511
 10
25.0419845581
 20
140.879611969
  0
LWPOLYLINE
  5
474
330
1FF
100
AcDbEntity
  8
0
  6
Continuous
 62
   142
100
AcDbPolyline
 90
        2
 70
     0
 43
0.4999999847
 10
17.5207214355
 20
167.5542488098
 10
17.5040512085
 20
167.642414093
  0
LWPOLYLINE
  5
475
330
1FF
100
AcDbEntity
  8
0
  6
Continuous
 62
   142
100
AcDbPolyline
 90
        2
 70
     0
 43
0.4999999847
 10
29.695602417
 20
107.8039741516
 10
29.9375
 20
106.4070014954
  0
LWPOLYLINE
  5
476
330
1FF
100
AcDbEntity
  8
0
  6
Continuous
 62
   142
100
AcDbPolyline
 90
        2
 70
     0
 43
0.4999999847
 10
26.8634872437
 20
140.8293647766
 10
27.1216049194
 20
139.3206062317
  0
LWPOLYLINE
  5
477
330
1FF
100
AcDbEntity
  8
0
  6
Continuous
 62
   142
100
AcDbPolyline
 90
        2
 70
     0
 43
0.4999999847
 10
38.9703826904
 20
35.5437889099
 10
39.0221939087
 20
35.2396736145
  0
LWPOLYLINE
  5
478
330
1FF
100
AcDbEntity
  8
0
  6
Continuous
 62
   142
100
AcDbPolyline
 90
        2
 70
     0
 43
0.4999999847
 10
42.74060821529999
 20
76.4563941956
 10
42.5829696655
 20
77.4483528137
  0
LWPOLYLINE
  5
479
330
1FF
100
AcDbEntity
  8
0
  6
Continuous
 62
   142
100
AcDbPolyline
 90
        2
 70
     0
 43
0.4999999847
 10
47.0101852417
 20
25.6889610291
 10
47.0498962402
 20
25.432849884
  0
LWPOLYLINE
  5
47A
330
1FF
100
AcDbEntity
  8
0
  6
Continuous
 62
   142
100
AcDbPolyline
 90
        2
 70
     0
 43
0.4999999847
 10
47.1370239258
 20
28.4226264954
 10
47.1861801147
 20
28.0837364197
  0
LWPOLYLINE
  5
47B
330
1FF
100
AcDbEntity
  8
0
  6
Continuous
 62
   142
100
AcDbPolyline
 90
        2
 70
     0
 43
0.4999999847
 10
41.447013855
 20
30.7840003967
 10
41.4111328125
 20
31.0834770203
  0
LWPOLYLINE
  5
47C
330
1FF
100
AcDbEntity
  8
0
  6
Continuous
 62
   142
100
AcDbPolyline
 90
        2
 70
     0
 43
0.4999999847
 10
49.98696899409999
 20
23.2979316711
 10
50.00997161869999
 20
23.0629081726
  0
LWPOLYLINE
  5
47D
330
1FF
100
AcDbEntity
  8
0
  6
Continuous
 62
   142
100
AcDbPolyline
 90
        2
 70
     0
 43
0.4999999847
 10
47.12365722659998
 20
28.5759315491
 10
47.1370239258
 20
28.4226264954
  0
LWPOLYLINE
  5
47E
330
1FF
100
AcDbEntity
  8
0
  6
Continuous
 62
   142
100
AcDbPolyline
 90
        2
 70
     0
 43
0.4999999847
 10
43.8070602417
 20
129.6060676575
 10
43.74479675289999
 20
130.4373817444
  0
LWPOLYLINE
  5
47F
330
1FF
100
AcDbEntity
  8
0
  6
Continuous
 62
   142
100
AcDbPolyline
 90
        2
 70
     0
 43
0.4999999847
 10
46.9521255493
 20
26.1089057922
 10
46.9656143188
 20
25.8670082092
  0
LWPOLYLINE
  5
480
330
1FF
100
AcDbEntity
  8
0
  6
Continuous
 62
   142
100
AcDbPolyline
 90
        2
 70
     0
 43
0.4999999847
 10
49.8367919922
 20
26.6741294861
 10
49.8368606567
 20
26.6725502014
  0
LWPOLYLINE
  5
481
330
1FF
100
AcDbEntity
  8
0
  6
Continuous
 62
   142
100
AcDbPolyline
 90
        2
 70
     0
 43
0.4999999847
 10
39.0502090454
 20
34.9831123352
 10
39.06560516360001
 20
34.5440788269
  0
LWPOLYLINE
  5
482
330
1FF
100
AcDbEntity
  8
0
  6
Continuous
 62
   142
100
AcDbPolyline
 90
        2
 70
     0
 43
0.4999999847
 10
41.32082366939999
 20
90.7462501526
 10
41.28237915039998
 20
92.49161148069999
  0
LWPOLYLINE
  5
483
330
1FF
100
AcDbEntity
  8
0
  6
Continuous
 62
   142
100
AcDbPolyline
 90
        2
 70
     0
 43
0.4999999847
 10
45.21118926999998
 20
123.4922065735
 10
45.2091598511
 20
123.6113319397
  0
LWPOLYLINE
  5
484
330
1FF
100
AcDbEntity
  8
0
  6
Continuous
 62
   142
100
AcDbPolyline
 90
        2
 70
     0
 43
0.4999999847
 10
33.6880645752
 20
38.6033058167
 10
33.6691131592
 20
42.4070549011
  0
LWPOLYLINE
  5
485
330
1FF
100
AcDbEntity
  8
0
  6
Continuous
 62
   142
100
AcDbPolyline
 90
        2
 70
     0
 43
0.4999999847
 10
35.5489578247
 20
48.83967208859999
 10
35.5529785156
 20
47.40678787229999
  0
LWPOLYLINE
  5
486
330
1FF
100
AcDbEntity
  8
0
  6
Continuous
 62
   142
100
AcDbPolyline
 90
        2
 70
     0
 43
0.4999999847
 10
36.1454925537
 20
40.1961860657
 10
36.1572113037
 20
33.9793739319
  0
LWPOLYLINE
  5
48A
330
1FF
100
AcDbEntity
  8
0
  6
Continuous
 62
   142
100
AcDbPolyline
 90
        2
 70
     0
 43
0.4999999847
 10
41.38227081300001
 20
32.8310050964
 10
41.39427948
 20
35.3611030579
  0
LWPOLYLINE
  5
48B
330
1FF
100
AcDbEntity
  8
0
  6
Continuous
 62
   142
100
AcDbPolyline
 90
        2
 70
     0
 43
0.4999999847
 10
41.1393890381
 20
44.01613235470001
 10
41.1315231323
 20
42.7238578796
  0
LWPOLYLINE
  5
48C
330
1FF
100
AcDbEntity
  8
0
  6
Continuous
 62
   142
100
AcDbPolyline
 90
        2
 70
     0
 43
0.4999999847
 10
41.3651580811
 20
31.639377594
 10
41.4173965454
 20
35.2743721008
  0
LWPOLYLINE
  5
48D
330
1FF
100
AcDbEntity
  8
0
  6
Continuous
 62
   142
100
AcDbPolyline
 90
        2
 70
     0
 43
0.4999999847
 10
39.7638702393
 20
110.4399909973
 10
39.84906768800001
 20
111.8084144592
  0
LWPOLYLINE
  5
48E
330
1FF
100
AcDbEntity
  8
0
  6
Continuous
 62
   142
100
AcDbPolyline
 90
        2
 70
     0
 43
0.4999999847
 10
33.46118927
 20
125.5552864075
 10
33.5127487183
 20
126.1894569397
  0
LWPOLYLINE
  5
48F
330
1FF
100
AcDbEntity
  8
0
  6
Continuous
 62
   142
100
AcDbPolyline
 90
        2
 70
     0
 43
0.4999999847
 10
36.0386581421
 20
92.9183387756
 10
35.95030212400001
 20
91.8531684875
  0
LWPOLYLINE
  5
490
330
1FF
100
AcDbEntity
  8
0
  6
Continuous
 62
   142
100
AcDbPolyline
 90
        2
 70
     0
 43
0.4999999847
 10
30.7302322388
 20
44.8346443176
 10
30.7530212402
 20
45.0725669861
  0
LWPOLYLINE
  5
491
330
1FF
100
AcDbEntity
  8
0
  6
Continuous
 62
   142
100
AcDbPolyline
 90
        2
 70
     0
 43
0.4999999847
 10
30.7530212402
 20
45.0725669861
 10
30.7658538818
 20
45.2065162659
  0
LWPOLYLINE
  5
492
330
1FF
100
AcDbEntity
  8
0
  6
Continuous
 62
   142
100
AcDbPolyline
 90
        2
 70
     0
 43
0.4999999847
 10
29.9375
 20
106.4070014954
 10
29.8373031616
 20
105.5929450989
  0
LWPOLYLINE
  5
493
330
1FF
100
AcDbEntity
  8
0
  6
Continuous
 62
   142
100
AcDbPolyline
 90
        2
 70
     0
 43
0.4999999847
 10
23.4552230835
 20
70.2027549744
 10
23.3673171997
 20
69.69876480100001
  0
LWPOLYLINE
  5
494
330
1FF
100
AcDbEntity
  8
0
  6
Continuous
 62
   142
100
AcDbPolyline
 90
        2
 70
     0
 43
0.4999999847
 10
31.6588287354
 20
115.3193244934
 10
33.46118927
 20
125.5552864075
  0
LWPOLYLINE
  5
495
330
1FF
100
AcDbEntity
  8
0
  6
Continuous
 62
   142
100
AcDbPolyline
 90
        2
 70
     0
 43
0.4999999847
 10
36.8449707031
 20
144.1935005188
 10
34.7334823608
 20
132.3189430237
  0
LWPOLYLINE
  5
496
330
1FF
100
AcDbEntity
  8
0
  6
Continuous
 62
   142
100
AcDbPolyline
 90
        2
 70
     0
 43
0.4999999847
 10
26.7996902466
 20
88.9102973938
 10
23.4960174561
 20
70.4367103577
  0
LWPOLYLINE
  5
497
330
1FF
100
AcDbEntity
  8
0
  6
Continuous
 62
   142
100
AcDbPolyline
 90
        2
 70
     0
 43
0.4999999847
 10
37.44965362550001
 20
146.4611549377
 10
34.7670059204
 20
131.6441688538
  0
LWPOLYLINE
  5
498
330
1FF
100
AcDbEntity
  8
0
  6
Continuous
 62
   142
100
AcDbPolyline
 90
        2
 70
     0
 43
0.4999999847
 10
29.8373031616
 20
105.5929450989
 10
28.4905319214
 20
98.2117042542
  0
LWPOLYLINE
  5
499
330
1FF
100
AcDbEntity
  8
0
  6
Continuous
 62
   142
100
AcDbPolyline
 90
        2
 70
     0
 43
0.4999999847
 10
33.4845199585
 20
124.9423408508
 10
31.2500457764
 20
113.1647224426
  0
LWPOLYLINE
  5
49A
330
1FF
100
AcDbEntity
  8
0
  6
Continuous
 62
   142
100
AcDbPolyline
 90
        2
 70
     0
 43
0.4999999847
 10
26.0638046265
 20
89.87678909299999
 10
26.1372146606
 20
90.2472572327
  0
LWPOLYLINE
  5
49B
330
1FF
100
AcDbEntity
  8
0
  6
Continuous
 62
   142
100
AcDbPolyline
 90
        2
 70
     0
 43
0.4999999847
 10
23.4960174561
 20
70.4367103577
 10
23.3805923462
 20
69.8675575256
  0
LWPOLYLINE
  5
49C
330
1FF
100
AcDbEntity
  8
0
  6
Continuous
 62
   142
100
AcDbPolyline
 90
        2
 70
     0
 43
0.4999999847
 10
16.6589584351
 20
56.6323280334
 10
16.6073608398
 20
56.3965492249
  0
LWPOLYLINE
  5
49D
330
1FF
100
AcDbEntity
  8
0
  6
Continuous
 62
   142
100
AcDbPolyline
 90
        2
 70
     0
 43
0.4999999847
 10
13.2097549438
 20
60.5141639709
 10
12.0178909302
 20
55.9183540344
  0
LWPOLYLINE
  5
49E
330
1FF
100
AcDbEntity
  8
0
  6
Continuous
 62
   142
100
AcDbPolyline
 90
        2
 70
     0
 43
0.4999999847
 10
12.1002655029
 20
56.23595047
 10
12.0157699585
 20
55.9197425842
  0
LWPOLYLINE
  5
49F
330
1FF
100
AcDbEntity
  8
0
  6
Continuous
 62
   142
100
AcDbPolyline
 90
        2
 70
     0
 43
0.4999999847
 10
29.4385986328
 20
124.9003639220999
 10
29.2778015137
 20
124.3122138977
  0
LWPOLYLINE
  5
4A0
330
1FF
100
AcDbEntity
  8
0
  6
Continuous
 62
   142
100
AcDbPolyline
 90
        2
 70
     0
 43
0.4999999847
 10
16.577507019
 20
53.4996681213
 10
16.5756225586
 20
53.4927864075
  0
LWPOLYLINE
  5
4A1
330
1FF
100
AcDbEntity
  8
0
  6
Continuous
 62
   142
100
AcDbPolyline
 90
        2
 70
     0
 43
0.4999999847
 10
16.6225891113
 20
53.6642723083
 10
16.577507019
 20
53.4996681213
  0
LWPOLYLINE
  5
4A3
330
1FF
100
AcDbEntity
  8
0
  6
Continuous
 62
   142
100
AcDbPolyline
 90
        2
 70
     0
 43
0.4999999847
 10
14.4696121216
 20
86.61886978149999
 10
14.2267532349
 20
85.93461990360001
  0
LWPOLYLINE
  5
4A4
330
1FF
100
AcDbEntity
  8
0
  6
Continuous
 62
   142
100
AcDbPolyline
 90
        2
 70
     0
 43
0.4999999847
 10
0.2877731323
 20
72.07999038699999
 10
0.3907241821
 20
72.34956741329998
  0
LWPOLYLINE
  5
4A5
330
1FF
100
AcDbEntity
  8
0
  6
Continuous
 62
   142
100
AcDbPolyline
 90
        2
 70
     0
 43
0.4999999847
 10
4.704940795899998
 20
102.3946266174
 10
4.5313644409
 20
102.051776886
  0
LWPOLYLINE
  5
4A6
330
1FF
100
AcDbEntity
  8
0
  6
Continuous
 62
   142
100
AcDbPolyline
 90
        2
 70
     0
 43
0.4999999847
 10
24.9079818726
 20
140.1444587708
 10
25.3111877441
 20
140.8148841858
  0
LWPOLYLINE
  5
4A7
330
1FF
100
AcDbEntity
  8
0
  6
Continuous
 62
   142
100
AcDbPolyline
 90
        2
 70
     0
 43
0.4999999847
 10
37.5504837036
 20
155.1260871887
 10
36.0042572021
 20
152.5806159973
  0
LWPOLYLINE
  5
4A8
330
1FF
100
AcDbEntity
  8
0
  6
Continuous
 62
   142
100
AcDbPolyline
 90
        2
 70
     0
 43
0.4999999847
 10
16.009223938
 20
120.5294837952
 10
17.9370422363
 20
123.656452179
  0
LWPOLYLINE
  5
4A9
330
1FF
100
AcDbEntity
  8
0
  6
Continuous
 62
   142
100
AcDbPolyline
 90
        2
 70
     0
 43
0.4999999847
 10
13.4245071411
 20
116.3738136292
 10
4.704940795899998
 20
102.3946266174
  0
LWPOLYLINE
  5
4AA
330
1FF
100
AcDbEntity
  8
0
  6
Continuous
 62
   142
100
AcDbPolyline
 90
        2
 70
     0
 43
0.4999999847
 10
26.9217987061
 20
138.0600318909
 10
20.0947494507
 20
127.1235389709
  0
LWPOLYLINE
  5
4AB
330
1FF
100
AcDbEntity
  8
0
  6
Continuous
 62
   142
100
AcDbPolyline
 90
        2
 70
     0
 43
0.4999999847
 10
31.6487808228
 20
145.6899757385
 10
37.3902053833
 20
154.7732887268
  0
LWPOLYLINE
  5
4AC
330
1FF
100
AcDbEntity
  8
0
  6
Continuous
 62
   142
100
AcDbPolyline
 90
        2
 70
     0
 43
0.4999999847
 10
24.3167953491
 20
139.4375953674
 10
23.6101989746
 20
138.4689674377
  0
LWPOLYLINE
  5
4AD
330
1FF
100
AcDbEntity
  8
0
  6
Continuous
 62
   142
100
AcDbPolyline
 90
        2
 70
     0
 43
0.4999999847
 10
5.4924697876
 20
143.2143135071
 10
5.4009628296
 20
143.1204872131
  0
LWPOLYLINE
  5
4AE
330
1FF
100
AcDbEntity
  8
0
  6
Continuous
 62
   142
100
AcDbPolyline
 90
        2
 70
     0
 43
0.4999999847
 10
5.7727127075
 20
143.4488716125
 10
5.4924697876
 20
143.2143135071
  0
LWPOLYLINE
  5
4AF
330
1FF
100
AcDbEntity
  8
0
  6
Continuous
 62
   142
100
AcDbPolyline
 90
        2
 70
     0
 43
0.4999999847
 10
18.3178329468
 20
168.950138092
 10
18.0288085938
 20
168.730014801
  0
LWPOLYLINE
  5
4B0
330
1FF
100
AcDbEntity
  8
0
  6
Continuous
 62
   142
100
AcDbPolyline
 90
        2
 70
     0
 43
0.4999999847
 10
18.4058837891
 20
169.0167884827
 10
18.3178329468
 20
168.950138092
  0
LWPOLYLINE
  5
4B1
330
1FF
100
AcDbEntity
  8
0
  6
Continuous
 62
   142
100
AcDbPolyline
 90
        2
 70
     0
 43
0.4999999847
 10
13.9549102783
 20
166.165058136
 10
14.8891143799
 20
166.8539009094
  0
LWPOLYLINE
  5
4B2
330
1FF
100
AcDbEntity
  8
0
  6
Continuous
 62
   142
100
AcDbPolyline
 90
        2
 70
     0
 43
0.3500000019
 10
4.805229187
 20
169.1368293762
 10
5.7284088135
 20
169.6149024963
  0
LWPOLYLINE
  5
4B3
330
1FF
100
AcDbEntity
  8
0
  6
Continuous
 62
   142
100
AcDbPolyline
 90
        2
 70
     0
 43
0.3500000019
 10
5.7284088135
 20
169.6149024963
 10
8.189987182599999
 20
170.8896369934
  0
LWPOLYLINE
  5
4B4
330
1FF
100
AcDbEntity
  8
0
  6
Continuous
 62
   142
100
AcDbPolyline
 90
        2
 70
     0
 43
0.4999999847
 10
2.9391937256
 20
178.8857307434
 10
2.7743301392
 20
178.808795929
  0
LWPOLYLINE
  5
4B5
330
1FF
100
AcDbEntity
  8
0
  6
Continuous
 62
   142
100
AcDbPolyline
 90
        2
 70
     0
 43
0.4999999847
 10
64.59513854979999
 20
66.3495292664
 10
65.1954956055
 20
66.5133323669
  0
LWPOLYLINE
  5
4B6
330
1FF
100
AcDbEntity
  8
0
  6
Continuous
 62
   142
100
AcDbPolyline
 90
        2
 70
     0
 43
0.4999999847
 10
11.8234329224
 20
60.94158554079999
 10
11.7206268311
 20
60.91808700560001
  0
LWPOLYLINE
  5
4B7
330
1FF
100
AcDbEntity
  8
0
  6
Continuous
 62
   142
100
AcDbPolyline
 90
        2
 70
     0
 43
0.4999999847
 10
3.381103515599998
 20
66.4758110046
 10
3.2696609497
 20
66.4531135559
  0
LWPOLYLINE
  5
4B8
330
1FF
100
AcDbEntity
  8
0
  6
Continuous
 62
   142
100
AcDbPolyline
 90
        2
 70
     0
 43
0.4999999847
 10
27.7359542847
 20
63.90839767460001
 10
28.0761871338
 20
63.9736595154
  0
LWPOLYLINE
  5
4B9
330
1FF
100
AcDbEntity
  8
0
  6
Continuous
 62
   142
100
AcDbPolyline
 90
        2
 70
     0
 43
0.4999999847
 10
5.0660858154
 20
62.3985557556
 10
5.2004089355
 20
62.4232444763
  0
LWPOLYLINE
  5
4BA
330
1FF
100
AcDbEntity
  8
0
  6
Continuous
 62
   142
100
AcDbPolyline
 90
        2
 70
     0
 43
0.4999999847
 10
53.3707275391
 20
72.9181938171
 10
52.4095687866
 20
72.76288986209998
  0
LWPOLYLINE
  5
4BB
330
1FF
100
AcDbEntity
  8
0
  6
Continuous
 62
   142
100
AcDbPolyline
 90
        2
 70
     0
 43
0.4999999847
 10
52.4095687866
 20
72.76288986209998
 10
51.8991088867
 20
72.6804084778
  0
LWPOLYLINE
  5
4BC
330
1FF
100
AcDbEntity
  8
0
  6
Continuous
 62
   142
100
AcDbPolyline
 90
        2
 70
     0
 43
0.4999999847
 10
15.4312133789
 20
73.06333541869998
 10
17.63784027099999
 20
73.1718635559
  0
LWPOLYLINE
  5
4BD
330
1FF
100
AcDbEntity
  8
0
  6
Continuous
 62
   142
100
AcDbPolyline
 90
        2
 70
     0
 43
0.4999999847
 10
14.5864562988
 20
73.02177810669999
 10
15.4312133789
 20
73.06333541869998
  0
LWPOLYLINE
  5
4BE
330
1FF
100
AcDbEntity
  8
0
  6
Continuous
 62
   142
100
AcDbPolyline
 90
        2
 70
     0
 43
0.4999999847
 10
13.1295928955
 20
78.250995636
 10
14.1335067749
 20
78.2330055237
  0
LWPOLYLINE
  5
4BF
330
1FF
100
AcDbEntity
  8
0
  6
Continuous
 62
   142
100
AcDbPolyline
 90
        2
 70
     0
 43
0.3500000019
 10
48.4224777222
 20
89.20911026
 10
47.0268249512
 20
89.2379188538
  0
LWPOLYLINE
  5
4C0
330
1FF
100
AcDbEntity
  8
0
  6
Continuous
 62
   142
100
AcDbPolyline
 90
        2
 70
     0
 43
0.4999999847
 10
23.0849761963
 20
95.246509552
 10
23.2638473511
 20
95.2111549377
  0
LWPOLYLINE
  5
4C1
330
1FF
100
AcDbEntity
  8
0
  6
Continuous
 62
   142
100
AcDbPolyline
 90
        2
 70
     0
 43
0.4999999847
 10
34.3612289429
 20
102.5833473206
 10
33.7473678589
 20
102.8778114319
  0
LWPOLYLINE
  5
4C2
330
1FF
100
AcDbEntity
  8
0
  6
Continuous
 62
   142
100
AcDbPolyline
 90
        2
 70
     0
 43
0.4999999847
 10
21.4600296021
 20
118.7243385315
 10
21.8971328735
 20
118.4964332581
  0
LWPOLYLINE
  5
4C3
330
1FF
100
AcDbEntity
  8
0
  6
Continuous
 62
   142
100
AcDbPolyline
 90
        2
 70
     0
 43
0.4999999847
 10
11.7196121216
 20
143.7717170715
 10
11.5173339844
 20
143.943775177
  0
LWPOLYLINE
  5
4C4
330
1FF
100
AcDbEntity
  8
0
  6
Continuous
 62
   142
100
AcDbPolyline
 90
        2
 70
     0
 43
0.4999999847
 10
0.1687393188
 20
162.8716926575
 10
0.8214263916
 20
162.2797584534
  0
LWPOLYLINE
  5
4C5
330
1FF
100
AcDbEntity
  8
0
  6
Continuous
 62
   142
100
AcDbPolyline
 90
        2
 70
     0
 43
0.4999999847
 10
0.0
 20
163.024723053
 10
0.1687393188
 20
162.8716926575
  0
LWPOLYLINE
  5
4C6
330
1FF
100
AcDbEntity
  8
0
  6
Continuous
 62
   142
100
AcDbPolyline
 90
        2
 70
     0
 43
0.4999999847
 10
0.8214263916
 20
162.2797584534
 10
1.1138687134
 20
162.0145454407
  0
LWPOLYLINE
  5
4C7
330
1FF
100
AcDbEntity
  8
0
  6
Continuous
 62
   142
100
AcDbPolyline
 90
        2
 70
     0
 43
0.4999999847
 10
47.73528289789999
 20
117.3599739075
 10
48.03125
 20
117.0785713196
  0
LWPOLYLINE
  5
4C8
330
1FF
100
AcDbEntity
  8
0
  6
Continuous
 62
   142
100
AcDbPolyline
 90
        2
 70
     0
 43
0.4999999847
 10
31.3994445801
 20
131.6373634338
 10
30.3982696533
 20
132.6420021057
  0
LWPOLYLINE
  5
4C9
330
1FF
100
AcDbEntity
  8
0
  6
Continuous
 62
   142
100
AcDbPolyline
 90
        2
 70
     0
 43
0.4999999847
 10
37.0349349976
 20
119.0324134827
 10
38.0473632813
 20
118.0127296448
  0
LWPOLYLINE
  5
4CA
330
1FF
100
AcDbEntity
  8
0
  6
Continuous
 62
   142
100
AcDbPolyline
 90
        2
 70
     0
 43
0.4999999847
 10
11.5173339844
 20
143.943775177
 10
11.2591247559
 20
144.213092804
  0
LWPOLYLINE
  5
4CB
330
1FF
100
AcDbEntity
  8
0
  6
Continuous
 62
   142
100
AcDbPolyline
 90
        2
 70
     0
 43
0.4999999847
 10
47.1922836304
 20
118.0911140442
 10
47.73528289789999
 20
117.3599739075
  0
LWPOLYLINE
  5
4CC
330
1FF
100
AcDbEntity
  8
0
  6
Continuous
 62
   142
100
AcDbPolyline
 90
        2
 70
     0
 43
0.4999999847
 10
21.3252029419
 20
152.2840461731
 10
21.8424911499
 20
151.4610176086
  0
LWPOLYLINE
  5
4CD
330
1FF
100
AcDbEntity
  8
0
  6
Continuous
 62
   142
100
AcDbPolyline
 90
        2
 70
     0
 43
0.4999999847
 10
31.91345977780001
 20
130.8189125061
 10
31.3994445801
 20
131.6373634338
  0
LWPOLYLINE
  5
4CE
330
1FF
100
AcDbEntity
  8
0
  6
Continuous
 62
   142
100
AcDbPolyline
 90
        2
 70
     0
 43
0.4999999847
 10
55.8250427246
 20
113.7970924377
 10
56.2770233154
 20
112.9814949036
  0
LWPOLYLINE
  5
4CF
330
1FF
100
AcDbEntity
  8
0
  6
Continuous
 62
   142
100
AcDbPolyline
 90
        2
 70
     0
 43
0.4999999847
 10
25.0003662109
 20
168.7890815735
 10
24.8714904785
 20
169.0382270813
  0
LWPOLYLINE
  5
4D0
330
1FF
100
AcDbEntity
  8
0
  6
Continuous
 62
   142
100
AcDbPolyline
 90
        2
 70
     0
 43
0.4999999847
 10
34.1147460938
 20
149.5912818909
 10
25.0387573242
 20
168.770160675
  0
LWPOLYLINE
  5
4D1
330
1FF
100
AcDbEntity
  8
0
  6
Continuous
 62
   142
100
AcDbPolyline
 90
        2
 70
     0
 43
0.4999999847
 10
54.3919143677
 20
106.7804298401
 10
49.8503723145
 20
116.3780403137
  0
LWPOLYLINE
  5
4D2
330
1FF
100
AcDbEntity
  8
0
  6
Continuous
 62
   142
100
AcDbPolyline
 90
        2
 70
     0
 43
0.4999999847
 10
45.4281539917
 20
125.7236366272
 10
44.4013137817
 20
127.8936500549
  0
LWPOLYLINE
  5
4D3
330
1FF
100
AcDbEntity
  8
0
  6
Continuous
 62
   142
100
AcDbPolyline
 90
        2
 70
     0
 43
0.4999999847
 10
70.84294128419998
 20
72.0370826721
 10
60.2066802979
 20
94.52533340450001
  0
LWPOLYLINE
  5
4D4
330
1FF
100
AcDbEntity
  8
0
  6
Continuous
 62
   142
100
AcDbPolyline
 90
        2
 70
     0
 43
0.4999999847
 10
44.4013137817
 20
127.8936500549
 10
44.02633666989999
 20
128.7428779602
  0
LWPOLYLINE
  5
4D5
330
1FF
100
AcDbEntity
  8
0
  6
Continuous
 62
   142
100
AcDbPolyline
 90
        2
 70
     0
 43
0.4999999847
 10
70.9033203125
 20
71.88727188109999
 10
70.84294128419998
 20
72.0370826721
  0
LWPOLYLINE
  5
4D6
330
1FF
100
AcDbEntity
  8
0
  6
Continuous
 62
   142
100
AcDbPolyline
 90
        2
 70
     0
 43
0.4999999847
 10
60.2066802979
 20
94.52533340450001
 10
59.73060607909999
 20
95.7195777893
  0
LWPOLYLINE
  5
4D7
330
1FF
100
AcDbEntity
  8
0
  6
Continuous
 62
   142
100
AcDbPolyline
 90
        2
 70
     0
 43
0.4999999847
 10
47.1102371216
 20
118.3042945862
 10
47.1922836304
 20
118.0911140442
  0
LWPOLYLINE
  5
4D8
330
1FF
100
AcDbEntity
  8
0
  6
Continuous
 62
   142
100
AcDbPolyline
 90
        2
 70
     0
 43
0.4999999847
 10
45.55777740479999
 20
122.5849494934
 10
45.21118926999998
 20
123.4922065735
  0
LWPOLYLINE
  5
4D9
330
1FF
100
AcDbEntity
  8
0
  6
Continuous
 62
   142
100
AcDbPolyline
 90
        2
 70
     0
 43
0.4999999847
 10
46.2683029175
 20
101.4019050598
 10
46.77836608889999
 20
100.0122871399
  0
LWPOLYLINE
  5
4DA
330
1FF
100
AcDbEntity
  8
0
  6
Continuous
 62
   142
100
AcDbPolyline
 90
        2
 70
     0
 43
0.4999999847
 10
45.2239685059
 20
123.5053901672
 10
47.1102371216
 20
118.3042945862
  0
LWPOLYLINE
  5
4DB
330
1FF
100
AcDbEntity
  8
0
  6
Continuous
 62
   142
100
AcDbPolyline
 90
        2
 70
     0
 43
0.4999999847
 10
72.4219055176
 20
14.9580345154
 10
71.49719238279999
 20
17.8228034973
  0
LWPOLYLINE
  5
4DC
330
1FF
100
AcDbEntity
  8
0
  6
Continuous
 62
   142
100
AcDbPolyline
 90
        2
 70
     0
 43
0.4999999847
 10
44.02633666989999
 20
128.7428779602
 10
43.7974624634
 20
129.7342262268
  0
LWPOLYLINE
  5
4DD
330
1FF
100
AcDbEntity
  8
0
  6
Continuous
 62
   142
100
AcDbPolyline
 90
        2
 70
     0
 43
0.4999999847
 10
39.96430206300001
 20
109.4135322571
 10
39.772315979
 20
110.575717926
  0
LWPOLYLINE
  5
4DE
330
1FF
100
AcDbEntity
  8
0
  6
Continuous
 62
   142
100
AcDbPolyline
 90
        2
 70
     0
 43
0.4999999847
 10
46.77836608889999
 20
100.0122871399
 10
47.0198364258
 20
98.5150489807
  0
LWPOLYLINE
  5
4DF
330
1FF
100
AcDbEntity
  8
0
  6
Continuous
 62
   142
100
AcDbPolyline
 90
        2
 70
     0
 43
0.4999999847
 10
61.037109375
 20
12.4801521301
 10
61.0922393799
 20
12.1077156067
  0
LWPOLYLINE
  5
4E0
330
1FF
100
AcDbEntity
  8
0
  6
Continuous
 62
   142
100
AcDbPolyline
 90
        2
 70
     0
 43
0.4999999847
 10
45.13420104979999
 20
124.1479377747
 10
45.2239685059
 20
123.5053901672
  0
LWPOLYLINE
  5
4E1
330
1FF
100
AcDbEntity
  8
0
  6
Continuous
 62
   142
100
AcDbPolyline
 90
        2
 70
     0
 43
0.4999999847
 10
45.0791854858
 20
124.6043128967
 10
45.13420104979999
 20
124.1479377747
  0
LWPOLYLINE
  5
4E2
330
1FF
100
AcDbEntity
  8
0
  6
Continuous
 62
   142
100
AcDbPolyline
 90
        2
 70
     0
 43
0.4999999847
 10
61.0922393799
 20
12.1077156067
 10
61.1360931396
 20
11.611995697
  0
LWPOLYLINE
  5
4E3
330
1FF
100
AcDbEntity
  8
0
  6
Continuous
 62
   142
100
AcDbPolyline
 90
        2
 70
     0
 43
0.4999999847
 10
61.1360931396
 20
11.611995697
 10
61.1479187012
 20
11.2784233093
  0
LWPOLYLINE
  5
4E4
330
1FF
100
AcDbEntity
  8
0
  6
Continuous
 62
   142
100
AcDbPolyline
 90
        2
 70
     0
 43
0.4999999847
 10
61.07814025879999
 20
16.4415626526
 10
61.0813598633
 20
16.3440513611
  0
LWPOLYLINE
  5
4E5
330
1FF
100
AcDbEntity
  8
0
  6
Continuous
 62
   142
100
AcDbPolyline
 90
        2
 70
     0
 43
0.4999999847
 10
47.12068939209999
 20
28.9132423401
 10
47.12365722659998
 20
28.5759315491
  0
LWPOLYLINE
  5
4E6
330
1FF
100
AcDbEntity
  8
0
  6
Continuous
 62
   142
100
AcDbPolyline
 90
        2
 70
     0
 43
0.4999999847
 10
47.90537261959999
 20
151.4810523987
 10
47.9064331055
 20
151.960849762
  0
LWPOLYLINE
  5
4E7
330
1FF
100
AcDbEntity
  8
0
  6
Continuous
 62
   142
100
AcDbPolyline
 90
        2
 70
     0
 43
0.4999999847
 10
44.98388671879999
 20
67.4973640442
 10
44.9486236572
 20
62.7479362488
  0
LWPOLYLINE
  5
4E8
330
1FF
100
AcDbEntity
  8
0
  6
Continuous
 62
   142
100
AcDbPolyline
 90
        2
 70
     0
 43
0.4999999847
 10
44.61458587649999
 20
29.429523468
 10
44.6438903809
 20
32.64610672
  0
LWPOLYLINE
  5
4E9
330
1FF
100
AcDbEntity
  8
0
  6
Continuous
 62
   142
100
AcDbPolyline
 90
        2
 70
     0
 43
0.4999999847
 10
48.9527359009
 20
37.2746086121
 10
48.9091873169
 20
34.9493522644
  0
LWPOLYLINE
  5
4EA
330
1FF
100
AcDbEntity
  8
0
  6
Continuous
 62
   142
100
AcDbPolyline
 90
        2
 70
     0
 43
0.4999999847
 10
44.59772491459999
 20
28.7068977356
 10
44.68245697020001
 20
32.3408851624
  0
LWPOLYLINE
  5
4EB
330
1FF
100
AcDbEntity
  8
0
  6
Continuous
 62
   142
100
AcDbPolyline
 90
        2
 70
     0
 43
0.4999999847
 10
52.2650909424
 20
34.41664505
 10
52.2067337036
 20
32.0032691956
  0
LWPOLYLINE
  5
4EC
330
1FF
100
AcDbEntity
  8
0
  6
Continuous
 62
   142
100
AcDbPolyline
 90
        2
 70
     0
 43
0.4999999847
 10
53.62813568119999
 20
18.1175041199
 10
53.7536849976
 20
23.1763801575
  0
LWPOLYLINE
  5
4ED
330
1FF
100
AcDbEntity
  8
0
  6
Continuous
 62
   142
100
AcDbPolyline
 90
        2
 70
     0
 43
0.4999999847
 10
44.5878372192
 20
28.3648338318
 10
44.59772491459999
 20
28.7068977356
  0
LWPOLYLINE
  5
4EE
330
1FF
100
AcDbEntity
  8
0
  6
Continuous
 62
   142
100
AcDbPolyline
 90
        2
 70
     0
 43
0.4999999847
 10
52.09801483149999
 20
24.6544303894
 10
52.1364593506
 20
25.8007164001
  0
LWPOLYLINE
  5
4EF
330
1FF
100
AcDbEntity
  8
0
  6
Continuous
 62
   142
100
AcDbPolyline
 90
        2
 70
     0
 43
0.4999999847
 10
49.9937973022
 20
23.228099823
 10
49.9852752686
 20
23.066318512
  0
LWPOLYLINE
  5
4F0
330
1FF
100
AcDbEntity
  8
0
  6
Continuous
 62
   142
100
AcDbPolyline
 90
        2
 70
     0
 43
0.4999999847
 10
39.06560516360001
 20
34.5440788269
 10
39.0358505249
 20
34.0405540466
  0
LWPOLYLINE
  5
4F1
330
1FF
100
AcDbEntity
  8
0
  6
Continuous
 62
   142
100
AcDbPolyline
 90
        2
 70
     0
 43
0.4999999847
 10
41.2951202393
 20
91.3900184631
 10
41.30401611329999
 20
91.5095558167
  0
LWPOLYLINE
  5
4F2
330
1FF
100
AcDbEntity
  8
0
  6
Continuous
 62
   142
100
AcDbPolyline
 90
        2
 70
     0
 43
0.4999999847
 10
43.74479675289999
 20
130.4373817444
 10
43.84037780759999
 20
131.5953559875
  0
LWPOLYLINE
  5
4F3
330
1FF
100
AcDbEntity
  8
0
  6
Continuous
 62
   142
100
AcDbPolyline
 90
        2
 70
     0
 43
0.4999999847
 10
42.5710067749
 20
77.311832428
 10
42.64822387699999
 20
78.19403457639999
  0
LWPOLYLINE
  5
4F4
330
1FF
100
AcDbEntity
  8
0
  6
Continuous
 62
   142
100
AcDbPolyline
 90
        2
 70
     0
 43
0.4999999847
 10
46.962272644
 20
98.8719978333
 10
46.87731170649999
 20
97.9200782776
  0
LWPOLYLINE
  5
4F5
330
1FF
100
AcDbEntity
  8
0
  6
Continuous
 62
   142
100
AcDbPolyline
 90
        2
 70
     0
 43
0.4999999847
 10
45.12431335449998
 20
67.21386337279999
 10
45.18248748779998
 20
67.8295021057
  0
LWPOLYLINE
  5
4F6
330
1FF
100
AcDbEntity
  8
0
  6
Continuous
 62
   142
100
AcDbPolyline
 90
        2
 70
     0
 43
0.4999999847
 10
41.39427948
 20
35.3611030579
 10
41.4174880981
 20
35.5991630554
  0
LWPOLYLINE
  5
4F7
330
1FF
100
AcDbEntity
  8
0
  6
Continuous
 62
   142
100
AcDbPolyline
 90
        2
 70
     0
 43
0.4999999847
 10
41.4174880981
 20
35.5991630554
 10
41.4326553345
 20
35.7547035217
  0
LWPOLYLINE
  5
4F8
330
1FF
100
AcDbEntity
  8
0
  6
Continuous
 62
   142
100
AcDbPolyline
 90
        2
 70
     0
 43
0.4999999847
 10
39.0358505249
 20
34.0405540466
 10
39.0028686523
 20
33.80934524540002
  0
LWPOLYLINE
  5
4F9
330
1FF
100
AcDbEntity
  8
0
  6
Continuous
 62
   142
100
AcDbPolyline
 90
        2
 70
     0
 43
0.4999999847
 10
45.17752075199998
 20
68.44717025760001
 10
45.0745239258
 20
67.739276886
  0
LWPOLYLINE
  5
4FA
330
1FF
100
AcDbEntity
  8
0
  6
Continuous
 62
   142
100
AcDbPolyline
 90
        2
 70
     0
 43
0.4999999847
 10
47.9097747803
 20
151.5097541809
 10
47.90537261959999
 20
151.4810523987
  0
LWPOLYLINE
  5
4FB
330
1FF
100
AcDbEntity
  8
0
  6
Continuous
 62
   142
100
AcDbPolyline
 90
        2
 70
     0
 43
0.4999999847
 10
53.077293396
 20
142.9633369446
 10
53.65203094479999
 20
146.2015724182
  0
LWPOLYLINE
  5
4FC
330
1FF
100
AcDbEntity
  8
0
  6
Continuous
 62
   142
100
AcDbPolyline
 90
        2
 70
     0
 43
0.4999999847
 10
52.9761581421
 20
142.3936042786
 10
53.077293396
 20
142.9633369446
  0
LWPOLYLINE
  5
4FD
330
1FF
100
AcDbEntity
  8
0
  6
Continuous
 62
   142
100
AcDbPolyline
 90
        2
 70
     0
 43
0.4999999847
 10
36.0911102295
 20
93.1981239319
 10
36.0386581421
 20
92.9183387756
  0
LWPOLYLINE
  5
4FE
330
1FF
100
AcDbEntity
  8
0
  6
Continuous
 62
   142
100
AcDbPolyline
 90
        2
 70
     0
 43
0.4999999847
 10
43.84037780759999
 20
131.5953559875
 10
47.90285491939999
 20
151.4758491516
  0
LWPOLYLINE
  5
4FF
330
1FF
100
AcDbEntity
  8
0
  6
Continuous
 62
   142
100
AcDbPolyline
 90
        2
 70
     0
 43
0.4999999847
 10
37.2795410156
 20
98.9678077698
 10
35.9446716309
 20
92.48720169069999
  0
LWPOLYLINE
  5
500
330
1FF
100
AcDbEntity
  8
0
  6
Continuous
 62
   142
100
AcDbPolyline
 90
        2
 70
     0
 43
0.4999999847
 10
39.84906768800001
 20
111.8084144592
 10
40.2488861084
 20
113.7380867004
  0
LWPOLYLINE
  5
501
330
1FF
100
AcDbEntity
  8
0
  6
Continuous
 62
   142
100
AcDbPolyline
 90
        2
 70
     0
 43
0.4999999847
 10
45.2387771606
 20
125.3628425598
 10
45.0791854858
 20
124.6043128967
  0
LWPOLYLINE
  5
502
330
1FF
100
AcDbEntity
  8
0
  6
Continuous
 62
   142
100
AcDbPolyline
 90
        2
 70
     0
 43
0.4999999847
 10
19.0701904297
 20
50.9882850647
 10
19.0406036377
 20
50.8781242371
  0
LWPOLYLINE
  5
503
330
1FF
100
AcDbEntity
  8
0
  6
Continuous
 62
   142
100
AcDbPolyline
 90
        2
 70
     0
 43
0.4999999847
 10
22.4875946045
 20
78.35490798949999
 10
22.716255188
 20
79.1205635071
  0
LWPOLYLINE
  5
504
330
1FF
100
AcDbEntity
  8
0
  6
Continuous
 62
   142
100
AcDbPolyline
 90
        2
 70
     0
 43
0.4999999847
 10
21.8784637451
 20
76.315448761
 10
22.4875946045
 20
78.35490798949999
  0
LWPOLYLINE
  5
505
330
1FF
100
AcDbEntity
  8
0
  6
Continuous
 62
   142
100
AcDbPolyline
 90
        2
 70
     0
 43
0.4999999847
 10
13.3320388794
 20
60.8233070374
 10
13.2097549438
 20
60.5141639709
  0
LWPOLYLINE
  5
506
330
1FF
100
AcDbEntity
  8
0
  6
Continuous
 62
   142
100
AcDbPolyline
 90
        2
 70
     0
 43
0.4999999847
 10
30.9905853271
 20
112.8310585022
 10
31.3506393433
 20
113.6948890686
  0
LWPOLYLINE
  5
507
330
1FF
100
AcDbEntity
  8
0
  6
Continuous
 62
   142
100
AcDbPolyline
 90
        2
 70
     0
 43
0.4999999847
 10
28.4905319214
 20
98.2117042542
 10
28.1242599487
 20
97.40915298459999
  0
LWPOLYLINE
  5
508
330
1FF
100
AcDbEntity
  8
0
  6
Continuous
 62
   142
100
AcDbPolyline
 90
        2
 70
     0
 43
0.4999999847
 10
4.9422073364
 20
68.2061195374
 10
4.873603820799999
 20
68.0573539734
  0
LWPOLYLINE
  5
509
330
1FF
100
AcDbEntity
  8
0
  6
Continuous
 62
   142
100
AcDbPolyline
 90
        2
 70
     0
 43
0.4999999847
 10
47.6747512817
 20
150.9815711975
 10
47.90537261959999
 20
151.4810523987
  0
LWPOLYLINE
  5
50A
330
1FF
100
AcDbEntity
  8
0
  6
Continuous
 62
   142
100
AcDbPolyline
 90
        2
 70
     0
 43
0.4999999847
 10
15.3690643311
 20
103.9116401672
 10
15.5417938232
 20
104.1737098694
  0
LWPOLYLINE
  5
50B
330
1FF
100
AcDbEntity
  8
0
  6
Continuous
 62
   142
100
AcDbPolyline
 90
        2
 70
     0
 43
0.4999999847
 10
32.5348129272
 20
129.5456733704
 10
29.4183273315
 20
124.8692817688
  0
LWPOLYLINE
  5
50C
330
1FF
100
AcDbEntity
  8
0
  6
Continuous
 62
   142
100
AcDbPolyline
 90
        2
 70
     0
 43
0.4999999847
 10
15.1578674316
 20
103.6038398743
 10
18.3488388062
 20
108.3402748108
  0
LWPOLYLINE
  5
50D
330
1FF
100
AcDbEntity
  8
0
  6
Continuous
 62
   142
100
AcDbPolyline
 90
        2
 70
     0
 43
0.4999999847
 10
23.418586731
 20
138.363697052
 10
24.9079818726
 20
140.1444587708
  0
LWPOLYLINE
  5
50E
330
1FF
100
AcDbEntity
  8
0
  6
Continuous
 62
   142
100
AcDbPolyline
 90
        2
 70
     0
 43
0.4999999847
 10
37.763961792
 20
155.3467292786
 10
37.5504837036
 20
155.1260871887
  0
LWPOLYLINE
  5
50F
330
1FF
100
AcDbEntity
  8
0
  6
Continuous
 62
   142
100
AcDbPolyline
 90
        2
 70
     0
 43
0.4999999847
 10
38.040397644
 20
155.6010169983
 10
37.763961792
 20
155.3467292786
  0
LWPOLYLINE
  5
510
330
1FF
100
AcDbEntity
  8
0
  6
Continuous
 62
   142
100
AcDbPolyline
 90
        2
 70
     0
 43
0.4999999847
 10
15.5269851685
 20
153.5326271057
 10
15.344367981
 20
153.4272346497
  0
LWPOLYLINE
  5
511
330
1FF
100
AcDbEntity
  8
0
  6
Continuous
 62
   142
100
AcDbPolyline
 90
        2
 70
     0
 43
0.4999999847
 10
19.1408691406
 20
169.3831825256
 10
18.4058837891
 20
169.0167884827
  0
LWPOLYLINE
  5
513
330
1FF
100
AcDbEntity
  8
0
  6
Continuous
 62
   142
100
AcDbPolyline
 90
        2
 70
     0
 43
0.3500000019
 10
8.8140411377
 20
171.1000556946
 10
11.2900848389
 20
171.9349403381
  0
LWPOLYLINE
  5
514
330
1FF
100
AcDbEntity
  8
0
  6
Continuous
 62
   142
100
AcDbPolyline
 90
        2
 70
     0
 43
0.3500000019
 10
8.189987182599999
 20
170.8896369934
 10
8.8140411377
 20
171.1000556946
  0
LWPOLYLINE
  5
515
330
1FF
100
AcDbEntity
  8
0
  6
Continuous
 62
   142
100
AcDbPolyline
 90
        2
 70
     0
 43
0.4999999847
 10
3.480522155799998
 20
68.6493339539
 10
3.3685913086
 20
68.626865387
  0
LWPOLYLINE
  5
516
330
1FF
100
AcDbEntity
  8
0
  6
Continuous
 62
   142
100
AcDbPolyline
 90
        2
 70
     0
 43
0.3500000019
 10
49.45797729489999
 20
89.33053970340003
 10
48.4224777222
 20
89.20911026
  0
LWPOLYLINE
  5
517
330
1FF
100
AcDbEntity
  8
0
  6
Continuous
 62
   142
100
AcDbPolyline
 90
        2
 70
     0
 43
0.4999999847
 10
14.3355407715
 20
88.3943977356
 10
13.9188690186
 20
88.38087844849999
  0
LWPOLYLINE
  5
518
330
1FF
100
AcDbEntity
  8
0
  6
Continuous
 62
   142
100
AcDbPolyline
 90
        2
 70
     0
 43
0.4999999847
 10
13.9188690186
 20
88.38087844849999
 10
11.7379302979
 20
88.31009292600002
  0
LWPOLYLINE
  5
519
330
1FF
100
AcDbEntity
  8
0
  6
Continuous
 62
   142
100
AcDbPolyline
 90
        2
 70
     0
 43
0.4999999847
 10
48.6904525757
 20
116.7705574036
 10
54.7621383667
 20
114.7949867249
  0
LWPOLYLINE
  5
51A
330
1FF
100
AcDbEntity
  8
0
  6
Continuous
 62
   142
100
AcDbPolyline
 90
        2
 70
     0
 43
0.4999999847
 10
48.3598022461
 20
116.8824195862
 10
48.8045883179
 20
116.6969490051
  0
LWPOLYLINE
  5
51B
330
1FF
100
AcDbEntity
  8
0
  6
Continuous
 62
   142
100
AcDbPolyline
 90
        2
 70
     0
 43
0.4999999847
 10
54.7621383667
 20
114.7949867249
 10
54.9111099243
 20
114.7305030823
  0
LWPOLYLINE
  5
51C
330
1FF
100
AcDbEntity
  8
0
  6
Continuous
 62
   142
100
AcDbPolyline
 90
        2
 70
     0
 43
0.4999999847
 10
36.8117523193
 20
118.8486366272
 10
37.5536880493
 20
118.5099372864
  0
LWPOLYLINE
  5
51D
330
1FF
100
AcDbEntity
  8
0
  6
Continuous
 62
   142
100
AcDbPolyline
 90
        2
 70
     0
 43
0.4999999847
 10
30.9469604492
 20
132.0914039612
 10
30.3567657471
 20
132.3907966614
  0
LWPOLYLINE
  5
51E
330
1FF
100
AcDbEntity
  8
0
  6
Continuous
 62
   142
100
AcDbPolyline
 90
        2
 70
     0
 43
0.4999999847
 10
10.7169036865
 20
144.3643226624
 10
11.1497497559
 20
144.1245002747
  0
LWPOLYLINE
  5
51F
330
1FF
100
AcDbEntity
  8
0
  6
Continuous
 62
   142
100
AcDbPolyline
 90
        2
 70
     0
 43
0.4999999847
 10
48.03125
 20
117.0785713196
 10
48.3598022461
 20
116.8824195862
  0
LWPOLYLINE
  5
520
330
1FF
100
AcDbEntity
  8
0
  6
Continuous
 62
   142
100
AcDbPolyline
 90
        2
 70
     0
 43
0.4999999847
 10
11.1497497559
 20
144.1245002747
 10
11.3147125244
 20
144.0223731995
  0
LWPOLYLINE
  5
521
330
1FF
100
AcDbEntity
  8
0
  6
Continuous
 62
   142
100
AcDbPolyline
 90
        2
 70
     0
 43
0.4999999847
 10
20.3409957886
 20
153.2661018372
 10
21.3252029419
 20
152.2840461731
  0
LWPOLYLINE
  5
522
330
1FF
100
AcDbEntity
  8
0
  6
Continuous
 62
   142
100
AcDbPolyline
 90
        2
 70
     0
 43
0.4999999847
 10
54.5734939575
 20
115.0753059387
 10
55.8250427246
 20
113.7970924377
  0
LWPOLYLINE
  5
523
330
1FF
100
AcDbEntity
  8
0
  6
Continuous
 62
   142
100
AcDbPolyline
 90
        2
 70
     0
 43
0.4999999847
 10
17.1766738892
 20
170.8931770325
 10
17.0313720703
 20
171.057056427
  0
LWPOLYLINE
  5
524
330
1FF
100
AcDbEntity
  8
0
  6
Continuous
 62
   142
100
AcDbPolyline
 90
        2
 70
     0
 43
0.4999999847
 10
17.0313720703
 20
171.057056427
 10
16.4617767334
 20
171.6994361877
  0
LWPOLYLINE
  5
525
330
1FF
100
AcDbEntity
  8
0
  6
Continuous
 62
   142
100
AcDbPolyline
 90
        2
 70
     0
 43
0.4999999847
 10
16.4617767334
 20
171.6994361877
 10
16.2025756836
 20
171.991733551
  0
LWPOLYLINE
  5
527
330
1FF
100
AcDbEntity
  8
0
  6
Continuous
 62
   142
100
AcDbPolyline
 90
        2
 70
     0
 43
0.4999999847
 10
60.7829589844
 20
124.6517372131
 10
61.3576965332
 20
123.8284645081
  0
LWPOLYLINE
  5
528
330
1FF
100
AcDbEntity
  8
0
  6
Continuous
 62
   142
100
AcDbPolyline
 90
        2
 70
     0
 43
0.4999999847
 10
56.6608810425
 20
133.7843055725
 10
55.55065917970001
 20
135.4730415344
  0
LWPOLYLINE
  5
529
330
1FF
100
AcDbEntity
  8
0
  6
Continuous
 62
   142
100
AcDbPolyline
 90
        2
 70
     0
 43
0.4999999847
 10
55.55065917970001
 20
135.4730415344
 10
53.99831390380001
 20
137.8342475891
  0
LWPOLYLINE
  5
52A
330
1FF
100
AcDbEntity
  8
0
  6
Continuous
 62
   142
100
AcDbPolyline
 90
        2
 70
     0
 43
0.4999999847
 10
47.743850708
 20
152.832660675
 10
47.5372467041
 20
153.280292511
  0
LWPOLYLINE
  5
52B
330
1FF
100
AcDbEntity
  8
0
  6
Continuous
 62
   142
100
AcDbPolyline
 90
        2
 70
     0
 43
0.4999999847
 10
60.3320922852
 20
125.7071418762
 10
60.7829589844
 20
124.6517372131
  0
LWPOLYLINE
  5
52C
330
1FF
100
AcDbEntity
  8
0
  6
Continuous
 62
   142
100
AcDbPolyline
 90
        2
 70
     0
 43
0.4999999847
 10
56.2335891724
 20
113.1062049866
 10
56.6725769043
 20
111.846118927
  0
LWPOLYLINE
  5
52D
330
1FF
100
AcDbEntity
  8
0
  6
Continuous
 62
   142
100
AcDbPolyline
 90
        2
 70
     0
 43
0.4999999847
 10
71.0956115723
 20
71.0370292664
 10
70.9033203125
 20
71.88727188109999
  0
LWPOLYLINE
  5
52E
330
1FF
100
AcDbEntity
  8
0
  6
Continuous
 62
   142
100
AcDbPolyline
 90
        2
 70
     0
 43
0.4999999847
 10
53.99831390380001
 20
137.8342475891
 10
52.9761581421
 20
142.3936042786
  0
LWPOLYLINE
  5
52F
330
1FF
100
AcDbEntity
  8
0
  6
Continuous
 62
   142
100
AcDbPolyline
 90
        2
 70
     0
 43
0.4999999847
 10
60.0924758911
 20
126.8347511292
 10
60.3320922852
 20
125.7071418762
  0
LWPOLYLINE
  5
530
330
1FF
100
AcDbEntity
  8
0
  6
Continuous
 62
   142
100
AcDbPolyline
 90
        2
 70
     0
 43
0.4999999847
 10
47.8447494507
 20
152.3540687561
 10
47.743850708
 20
152.832660675
  0
LWPOLYLINE
  5
531
330
1FF
100
AcDbEntity
  8
0
  6
Continuous
 62
   142
100
AcDbPolyline
 90
        2
 70
     0
 43
0.4999999847
 10
47.9054870605
 20
151.5334815979
 10
47.9097747803
 20
151.5097541809
  0
LWPOLYLINE
  5
532
330
1FF
100
AcDbEntity
  8
0
  6
Continuous
 62
   142
100
AcDbPolyline
 90
        2
 70
     0
 43
0.4999999847
 10
56.6465682983
 20
111.9207649231
 10
56.8069610596
 20
110.9431343079
  0
LWPOLYLINE
  5
533
330
1FF
100
AcDbEntity
  8
0
  6
Continuous
 62
   142
100
AcDbPolyline
 90
        2
 70
     0
 43
0.4999999847
 10
47.9064331055
 20
151.960849762
 10
47.8447494507
 20
152.3540687561
  0
LWPOLYLINE
  5
534
330
1FF
100
AcDbEntity
  8
0
  6
Continuous
 62
   142
100
AcDbPolyline
 90
        2
 70
     0
 43
0.4999999847
 10
59.5765914917
 20
96.7968940735
 10
59.7418823242
 20
95.64076614379999
  0
LWPOLYLINE
  5
535
330
1FF
100
AcDbEntity
  8
0
  6
Continuous
 62
   142
100
AcDbPolyline
 90
        2
 70
     0
 43
0.4999999847
 10
74.92041015619998
 20
2.266330718999999
 10
74.3059844971
 20
6.872253417999999
  0
LWPOLYLINE
  5
536
330
1FF
100
AcDbEntity
  8
0
  6
Continuous
 62
   142
100
AcDbPolyline
 90
        2
 70
     0
 43
0.4999999847
 10
74.78237915040002
 20
3.3009376526
 10
74.9096984863
 20
2.260139465299999
  0
LWPOLYLINE
  5
537
330
1FF
100
AcDbEntity
  8
0
  6
Continuous
 62
   142
100
AcDbPolyline
 90
        2
 70
     0
 43
0.4999999847
 10
81.7693786621
 20
8.347286224400001
 10
81.63557434080003
 20
9.720191955599998
  0
LWPOLYLINE
  5
538
330
1FF
100
AcDbEntity
  8
0
  6
Continuous
 62
   142
100
AcDbPolyline
 90
        2
 70
     0
 43
0.4999999847
 10
60.0852966309
 20
127.8518257141
 10
60.0924758911
 20
126.8347511292
  0
LWPOLYLINE
  5
539
330
1FF
100
AcDbEntity
  8
0
  6
Continuous
 62
   142
100
AcDbPolyline
 90
        2
 70
     0
 43
0.4999999847
 10
56.8069610596
 20
110.9431343079
 10
56.78216552729999
 20
110.0518379211
  0
LWPOLYLINE
  5
53A
330
1FF
100
AcDbEntity
  8
0
  6
Continuous
 62
   142
100
AcDbPolyline
 90
        2
 70
     0
 43
0.4999999847
 10
57.92603301999999
 20
20.8450508118
 10
57.71900177
 20
14.4007453918
  0
LWPOLYLINE
  5
53B
330
1FF
100
AcDbEntity
  8
0
  6
Continuous
 62
   142
100
AcDbPolyline
 90
        2
 70
     0
 43
0.4999999847
 10
63.3279418945
 20
24.8713874817
 10
63.2827148438
 20
23.8130302429
  0
LWPOLYLINE
  5
53C
330
1FF
100
AcDbEntity
  8
0
  6
Continuous
 62
   142
100
AcDbPolyline
 90
        2
 70
     0
 43
0.4999999847
 10
61.0813598633
 20
16.3440513611
 10
61.05688476560001
 20
15.8465843201
  0
LWPOLYLINE
  5
53D
330
1FF
100
AcDbEntity
  8
0
  6
Continuous
 62
   142
100
AcDbPolyline
 90
        2
 70
     0
 43
0.4999999847
 10
52.1364593506
 20
25.8007164001
 10
52.16548919680001
 20
26.2056388855
  0
LWPOLYLINE
  5
53E
330
1FF
100
AcDbEntity
  8
0
  6
Continuous
 62
   142
100
AcDbPolyline
 90
        2
 70
     0
 43
0.4999999847
 10
59.6895980835
 20
97.78079605100003
 10
59.5765914917
 20
96.7968940735
  0
LWPOLYLINE
  5
53F
330
1FF
100
AcDbEntity
  8
0
  6
Continuous
 62
   142
100
AcDbPolyline
 90
        2
 70
     0
 43
0.4999999847
 10
44.57747650149999
 20
28.56823349
 10
44.5982437134
 20
28.72897720340001
  0
LWPOLYLINE
  5
540
330
1FF
100
AcDbEntity
  8
0
  6
Continuous
 62
   142
100
AcDbPolyline
 90
        2
 70
     0
 43
0.4999999847
 10
47.1694946289
 20
29.2069129944
 10
47.12068939209999
 20
28.9132423401
  0
LWPOLYLINE
  5
541
330
1FF
100
AcDbEntity
  8
0
  6
Continuous
 62
   142
100
AcDbPolyline
 90
        2
 70
     0
 43
0.4999999847
 10
46.98753356930001
 20
26.3074836731
 10
46.9521255493
 20
26.1089057922
  0
LWPOLYLINE
  5
542
330
1FF
100
AcDbEntity
  8
0
  6
Continuous
 62
   142
100
AcDbPolyline
 90
        2
 70
     0
 43
0.4999999847
 10
39.0028686523
 20
33.80934524540002
 10
38.9581375122
 20
33.6017036438
  0
LWPOLYLINE
  5
543
330
1FF
100
AcDbEntity
  8
0
  6
Continuous
 62
   142
100
AcDbPolyline
 90
        2
 70
     0
 43
0.4999999847
 10
45.18248748779998
 20
67.8295021057
 10
45.18385314939999
 20
67.8352851868
  0
LWPOLYLINE
  5
544
330
1FF
100
AcDbEntity
  8
0
  6
Continuous
 62
   142
100
AcDbPolyline
 90
        2
 70
     0
 43
0.4999999847
 10
56.78216552729999
 20
110.0518379211
 10
56.604309082
 20
109.3669013977
  0
LWPOLYLINE
  5
545
330
1FF
100
AcDbEntity
  8
0
  6
Continuous
 62
   142
100
AcDbPolyline
 90
        2
 70
     0
 43
0.4999999847
 10
33.6691131592
 20
42.4070549011
 10
33.7719497681
 20
42.73285293579999
  0
LWPOLYLINE
  5
546
330
1FF
100
AcDbEntity
  8
0
  6
Continuous
 62
   142
100
AcDbPolyline
 90
        2
 70
     0
 43
0.4999999847
 10
60.39186096189999
 20
128.8096351624
 10
60.0852966309
 20
127.8518257141
  0
LWPOLYLINE
  5
547
330
1FF
100
AcDbEntity
  8
0
  6
Continuous
 62
   142
100
AcDbPolyline
 90
        2
 70
     0
 43
0.4999999847
 10
41.0096435547
 20
90.5271949768
 10
41.2951202393
 20
91.3900184631
  0
LWPOLYLINE
  5
548
330
1FF
100
AcDbEntity
  8
0
  6
Continuous
 62
   142
100
AcDbPolyline
 90
        2
 70
     0
 43
0.4999999847
 10
23.7690353394
 20
51.2036170959
 10
23.8433837891
 20
51.42767715449998
  0
LWPOLYLINE
  5
549
330
1FF
100
AcDbEntity
  8
0
  6
Continuous
 62
   142
100
AcDbPolyline
 90
        2
 70
     0
 43
0.4999999847
 10
23.8433837891
 20
51.42767715449998
 10
23.8726272583
 20
51.5157966614
  0
LWPOLYLINE
  5
54A
330
1FF
100
AcDbEntity
  8
0
  6
Continuous
 62
   142
100
AcDbPolyline
 90
        2
 70
     0
 43
0.4999999847
 10
28.260055542
 20
47.2472572327
 10
28.3600845337
 20
47.5343894958
  0
LWPOLYLINE
  5
54B
330
1FF
100
AcDbEntity
  8
0
  6
Continuous
 62
   142
100
AcDbPolyline
 90
        2
 70
     0
 43
0.4999999847
 10
41.01301574709999
 20
90.5361976624
 10
41.0096435547
 20
90.5271949768
  0
LWPOLYLINE
  5
54C
330
1FF
100
AcDbEntity
  8
0
  6
Continuous
 62
   142
100
AcDbPolyline
 90
        2
 70
     0
 43
0.4999999847
 10
16.7433166504
 20
56.81373977659998
 10
16.6589584351
 20
56.6323280334
  0
LWPOLYLINE
  5
54D
330
1FF
100
AcDbEntity
  8
0
  6
Continuous
 62
   142
100
AcDbPolyline
 90
        2
 70
     0
 43
0.4999999847
 10
45.46454620359999
 20
125.7930030823
 10
45.2387771606
 20
125.3628425598
  0
LWPOLYLINE
  5
54E
330
1FF
100
AcDbEntity
  8
0
  6
Continuous
 62
   142
100
AcDbPolyline
 90
        2
 70
     0
 43
0.4999999847
 10
25.7041091919
 20
89.2223396301
 10
25.9355773926
 20
89.6631660461
  0
LWPOLYLINE
  5
54F
330
1FF
100
AcDbEntity
  8
0
  6
Continuous
 62
   142
100
AcDbPolyline
 90
        2
 70
     0
 43
0.4999999847
 10
25.9355773926
 20
89.6631660461
 10
26.0638046265
 20
89.87678909299999
  0
LWPOLYLINE
  5
550
330
1FF
100
AcDbEntity
  8
0
  6
Continuous
 62
   142
100
AcDbPolyline
 90
        2
 70
     0
 43
0.4999999847
 10
11.3827438354
 20
82.21246719359999
 10
11.35659027099999
 20
82.17308425899998
  0
LWPOLYLINE
  5
551
330
1FF
100
AcDbEntity
  8
0
  6
Continuous
 62
   142
100
AcDbPolyline
 90
        2
 70
     0
 43
0.4999999847
 10
12.0004196167
 20
83.14256668090001
 10
11.3827438354
 20
82.21246719359999
  0
LWPOLYLINE
  5
552
330
1FF
100
AcDbEntity
  8
0
  6
Continuous
 62
   142
100
AcDbPolyline
 90
        2
 70
     0
 43
0.4999999847
 10
54.21144103999999
 20
146.9928321838
 10
55.66979980470001
 20
149.0556373596
  0
LWPOLYLINE
  5
553
330
1FF
100
AcDbEntity
  8
0
  6
Continuous
 62
   142
100
AcDbPolyline
 90
        2
 70
     0
 43
0.4999999847
 10
53.65203094479999
 20
146.2015724182
 10
54.21144103999999
 20
146.9928321838
  0
LWPOLYLINE
  5
554
330
1FF
100
AcDbEntity
  8
0
  6
Continuous
 62
   142
100
AcDbPolyline
 90
        2
 70
     0
 43
0.4999999847
 10
14.4640350342
 20
86.6031837463
 10
12.0004196167
 20
83.14256668090001
  0
LWPOLYLINE
  5
555
330
1FF
100
AcDbEntity
  8
0
  6
Continuous
 62
   142
100
AcDbPolyline
 90
        2
 70
     0
 43
0.4999999847
 10
31.689666748
 20
145.7542762756
 10
31.481086731
 20
145.6074104309
  0
LWPOLYLINE
  5
556
330
1FF
100
AcDbEntity
  8
0
  6
Continuous
 62
   142
100
AcDbPolyline
 90
        2
 70
     0
 43
0.4999999847
 10
38.8146972656
 20
156.0065345764
 10
38.1760940552
 20
155.6431922913
  0
LWPOLYLINE
  5
557
330
1FF
100
AcDbEntity
  8
0
  6
Continuous
 62
   142
100
AcDbPolyline
 90
        2
 70
     0
 43
0.4999999847
 10
6.511146545399999
 20
143.8247108459
 10
5.829948425299998
 20
143.4627723694
  0
LWPOLYLINE
  5
558
330
1FF
100
AcDbEntity
  8
0
  6
Continuous
 62
   142
100
AcDbPolyline
 90
        2
 70
     0
 43
0.4999999847
 10
38.5329437256
 20
155.8462257385
 10
38.040397644
 20
155.6010169983
  0
LWPOLYLINE
  5
559
330
1FF
100
AcDbEntity
  8
0
  6
Continuous
 62
   142
100
AcDbPolyline
 90
        2
 70
     0
 43
0.4999999847
 10
6.0120315552
 20
143.5595283508
 10
5.7727127075
 20
143.4488716125
  0
LWPOLYLINE
  5
55A
330
1FF
100
AcDbEntity
  8
0
  6
Continuous
 62
   142
100
AcDbPolyline
 90
        2
 70
     0
 43
0.4999999847
 10
6.485488891599998
 20
167.3492469788
 10
6.037284851099999
 20
167.2190589905
  0
LWPOLYLINE
  5
55B
330
1FF
100
AcDbEntity
  8
0
  6
Continuous
 62
   142
100
AcDbPolyline
 90
        2
 70
     0
 43
0.3500000019
 10
50.1402053833
 20
89.512714386
 10
49.45797729489999
 20
89.33053970340003
  0
LWPOLYLINE
  5
55C
330
1FF
100
AcDbEntity
  8
0
  6
Continuous
 62
   142
100
AcDbPolyline
 90
        2
 70
     0
 43
0.4999999847
 10
21.9014434814
 20
118.4579811096
 10
21.9378128052
 20
118.4547462463
  0
LWPOLYLINE
  5
55D
330
1FF
100
AcDbEntity
  8
0
  6
Continuous
 62
   142
100
AcDbPolyline
 90
        2
 70
     0
 43
0.4999999847
 10
61.9608917236
 20
123.3332710266
 10
69.3869476318
 20
121.1942481995
  0
LWPOLYLINE
  5
55E
330
1FF
100
AcDbEntity
  8
0
  6
Continuous
 62
   142
100
AcDbPolyline
 90
        2
 70
     0
 43
0.4999999847
 10
48.8045883179
 20
116.6969490051
 10
50.5902557373
 20
116.1524085999
  0
LWPOLYLINE
  5
55F
330
1FF
100
AcDbEntity
  8
0
  6
Continuous
 62
   142
100
AcDbPolyline
 90
        2
 70
     0
 43
0.4999999847
 10
10.5957794189
 20
144.5097846985
 10
10.3094406128
 20
144.6117744446
  0
LWPOLYLINE
  5
560
330
1FF
100
AcDbEntity
  8
0
  6
Continuous
 62
   142
100
AcDbPolyline
 90
        2
 70
     0
 43
0.4999999847
 10
61.2810974121
 20
123.5989723206
 10
61.9608917236
 20
123.3332710266
  0
LWPOLYLINE
  5
561
330
1FF
100
AcDbEntity
  8
0
  6
Continuous
 62
   142
100
AcDbPolyline
 90
        2
 70
     0
 43
0.4999999847
 10
11.2591247559
 20
144.213092804
 10
10.5957794189
 20
144.5097846985
  0
LWPOLYLINE
  5
562
330
1FF
100
AcDbEntity
  8
0
  6
Continuous
 62
   142
100
AcDbPolyline
 90
        2
 70
     0
 43
0.4999999847
 10
69.24812316890001
 20
121.2028388977
 10
69.9433288574
 20
120.8861732483
  0
LWPOLYLINE
  5
563
330
1FF
100
AcDbEntity
  8
0
  6
Continuous
 62
   142
100
AcDbPolyline
 90
        2
 70
     0
 43
0.4999999847
 10
60.120513916
 20
131.131275177
 10
57.2142868042
 20
133.3599281311
  0
LWPOLYLINE
  5
564
330
1FF
100
AcDbEntity
  8
0
  6
Continuous
 62
   142
100
AcDbPolyline
 90
        2
 70
     0
 43
0.4999999847
 10
57.2142868042
 20
133.3599281311
 10
56.6608810425
 20
133.7843055725
  0
LWPOLYLINE
  5
566
330
1FF
100
AcDbEntity
  8
0
  6
Continuous
 62
   142
100
AcDbPolyline
 90
        2
 70
     0
 43
0.4999999847
 10
61.3576965332
 20
123.8284645081
 10
61.8819122314
 20
123.3641395569
  0
LWPOLYLINE
  5
567
330
1FF
100
AcDbEntity
  8
0
  6
Continuous
 62
   142
100
AcDbPolyline
 90
        2
 70
     0
 43
0.4999999847
 10
46.91699981689999
 20
153.9372596741
 10
44.4315414429
 20
156.2227668762
  0
LWPOLYLINE
  5
568
330
1FF
100
AcDbEntity
  8
0
  6
Continuous
 62
   142
100
AcDbPolyline
 90
        2
 70
     0
 43
0.4999999847
 10
24.5490341187
 20
169.4047737122
 10
24.2705535889
 20
169.666934967
  0
LWPOLYLINE
  5
569
330
1FF
100
AcDbEntity
  8
0
  6
Continuous
 62
   142
100
AcDbPolyline
 90
        2
 70
     0
 43
0.4999999847
 10
69.3869476318
 20
121.1942481995
 10
69.4964752197
 20
121.0897254944
  0
LWPOLYLINE
  5
56A
330
1FF
100
AcDbEntity
  8
0
  6
Continuous
 62
   142
100
AcDbPolyline
 90
        2
 70
     0
 43
0.4999999847
 10
45.6547241211
 20
155.0979957581
 10
44.7118377686
 20
156.0021705627
  0
LWPOLYLINE
  5
56B
330
1FF
100
AcDbEntity
  8
0
  6
Continuous
 62
   142
100
AcDbPolyline
 90
        2
 70
     0
 43
0.4999999847
 10
69.9433288574
 20
120.8861732483
 10
70.342086792
 20
120.4995765686
  0
LWPOLYLINE
  5
56C
330
1FF
100
AcDbEntity
  8
0
  6
Continuous
 62
   142
100
AcDbPolyline
 90
        2
 70
     0
 43
0.4999999847
 10
47.5372467041
 20
153.280292511
 10
46.91699981689999
 20
153.9372596741
  0
LWPOLYLINE
  5
56D
330
1FF
100
AcDbEntity
  8
0
  6
Continuous
 62
   142
100
AcDbPolyline
 90
        2
 70
     0
 43
0.4999999847
 10
44.4913864136
 20
156.1756782532
 10
44.2586288452
 20
156.4287147522
  0
LWPOLYLINE
  5
56E
330
1FF
100
AcDbEntity
  8
0
  6
Continuous
 62
   142
100
AcDbPolyline
 90
        2
 70
     0
 43
0.4999999847
 10
24.8714904785
 20
169.0382270813
 10
24.5490341187
 20
169.4047737122
  0
LWPOLYLINE
  5
56F
330
1FF
100
AcDbEntity
  8
0
  6
Continuous
 62
   142
100
AcDbPolyline
 90
        2
 70
     0
 43
0.4999999847
 10
70.342086792
 20
120.4995765686
 10
70.6713409424
 20
120.1232185364
  0
LWPOLYLINE
  5
570
330
1FF
100
AcDbEntity
  8
0
  6
Continuous
 62
   142
100
AcDbPolyline
 90
        2
 70
     0
 43
0.4999999847
 10
25.0387573242
 20
168.770160675
 10
24.9668655396
 20
168.8538703918
  0
LWPOLYLINE
  5
571
330
1FF
100
AcDbEntity
  8
0
  6
Continuous
 62
   142
100
AcDbPolyline
 90
        2
 70
     0
 43
0.4999999847
 10
70.6713409424
 20
120.1232185364
 10
70.8972320557
 20
119.6949043274
  0
LWPOLYLINE
  5
572
330
1FF
100
AcDbEntity
  8
0
  6
Continuous
 62
   142
100
AcDbPolyline
 90
        2
 70
     0
 43
0.4999999847
 10
70.8972320557
 20
119.6949043274
 10
70.92567443850001
 20
119.621219635
  0
LWPOLYLINE
  5
573
330
1FF
100
AcDbEntity
  8
0
  6
Continuous
 62
   142
100
AcDbPolyline
 90
        2
 70
     0
 43
0.4999999847
 10
71.5067138672
 20
117.9785346985
 10
72.6371765137
 20
114.8672218323
  0
LWPOLYLINE
  5
574
330
1FF
100
AcDbEntity
  8
0
  6
Continuous
 62
   142
100
AcDbPolyline
 90
        2
 70
     0
 43
0.4999999847
 10
70.92567443850001
 20
119.621219635
 10
72.60699462889999
 20
114.8679237366
  0
LWPOLYLINE
  5
575
330
1FF
100
AcDbEntity
  8
0
  6
Continuous
 62
   142
100
AcDbPolyline
 90
        2
 70
     0
 43
0.4999999847
 10
72.6371765137
 20
114.8672218323
 10
72.7026062012
 20
114.532459259
  0
LWPOLYLINE
  5
576
330
1FF
100
AcDbEntity
  8
0
  6
Continuous
 62
   142
100
AcDbPolyline
 90
        2
 70
     0
 43
0.4999999847
 10
72.7026062012
 20
114.532459259
 10
72.80854797359999
 20
113.7260627747
  0
LWPOLYLINE
  5
577
330
1FF
100
AcDbEntity
  8
0
  6
Continuous
 62
   142
100
AcDbPolyline
 90
        2
 70
     0
 43
0.4999999847
 10
71.5423278809
 20
145.4096565247
 10
71.52401733399999
 20
146.2673683167
  0
LWPOLYLINE
  5
578
330
1FF
100
AcDbEntity
  8
0
  6
Continuous
 62
   142
100
AcDbPolyline
 90
        2
 70
     0
 43
0.4999999847
 10
71.52401733399999
 20
146.2673683167
 10
71.5181121826
 20
146.54504776
  0
LWPOLYLINE
  5
579
330
1FF
100
AcDbEntity
  8
0
  6
Continuous
 62
   142
100
AcDbPolyline
 90
        2
 70
     0
 43
0.4999999847
 10
71.0998535156
 20
70.7452583313
 10
71.0956115723
 20
71.0370292664
  0
LWPOLYLINE
  5
57A
330
1FF
100
AcDbEntity
  8
0
  6
Continuous
 62
   142
100
AcDbPolyline
 90
        2
 70
     0
 43
0.4999999847
 10
69.6665344238
 20
10.2717170715
 10
69.68980407710001
 20
10.9876289368
  0
LWPOLYLINE
  5
57B
330
1FF
100
AcDbEntity
  8
0
  6
Continuous
 62
   142
100
AcDbPolyline
 90
        2
 70
     0
 43
0.4999999847
 10
65.41586303709999
 20
10.1368675232
 10
65.28280639649999
 20
7.525619506799999
  0
LWPOLYLINE
  5
57C
330
1FF
100
AcDbEntity
  8
0
  6
Continuous
 62
   142
100
AcDbPolyline
 90
        2
 70
     0
 43
0.4999999847
 10
70.6557617188
 20
6.0824394226
 10
70.8298797607
 20
9.218959808300001
  0
LWPOLYLINE
  5
57D
330
1FF
100
AcDbEntity
  8
0
  6
Continuous
 62
   142
100
AcDbPolyline
 90
        2
 70
     0
 43
0.4999999847
 10
63.59092712399999
 20
16.3016319275
 10
63.5681152344
 20
15.9372673035
  0
LWPOLYLINE
  5
57E
330
1FF
100
AcDbEntity
  8
0
  6
Continuous
 62
   142
100
AcDbPolyline
 90
        2
 70
     0
 43
0.4999999847
 10
69.6477813721
 20
10.2699012756
 10
69.6827392578
 20
10.7705955505
  0
LWPOLYLINE
  5
57F
330
1FF
100
AcDbEntity
  8
0
  6
Continuous
 62
   142
100
AcDbPolyline
 90
        2
 70
     0
 43
0.4999999847
 10
71.598449707
 20
146.9111061096
 10
71.5849456787
 20
146.7596473694
  0
LWPOLYLINE
  5
580
330
1FF
100
AcDbEntity
  8
0
  6
Continuous
 62
   142
100
AcDbPolyline
 90
        2
 70
     0
 43
0.3500000019
 10
70.9533538818
 20
147.1296272278
 10
70.939743042
 20
146.9781074524
  0
LWPOLYLINE
  5
581
330
1FF
100
AcDbEntity
  8
0
  6
Continuous
 62
   142
100
AcDbPolyline
 90
        2
 70
     0
 43
0.4999999847
 10
71.5121307373
 20
146.5049324036
 10
71.5335693359
 20
146.6490516662999
  0
LWPOLYLINE
  5
582
330
1FF
100
AcDbEntity
  8
0
  6
Continuous
 62
   142
100
AcDbPolyline
 90
        2
 70
     0
 43
0.4999999847
 10
72.7769775391
 20
138.5427894592
 10
72.1937408447
 20
134.7756843567
  0
LWPOLYLINE
  5
583
330
1FF
100
AcDbEntity
  8
0
  6
Continuous
 62
   142
100
AcDbPolyline
 90
        2
 70
     0
 43
0.4999999847
 10
44.5247192383
 20
28.3490791321
 10
44.57747650149999
 20
28.56823349
  0
LWPOLYLINE
  5
584
330
1FF
100
AcDbEntity
  8
0
  6
Continuous
 62
   142
100
AcDbPolyline
 90
        2
 70
     0
 43
0.4999999847
 10
71.4635620117
 20
146.3721656799
 10
71.530960083
 20
146.6414833069
  0
LWPOLYLINE
  5
585
330
1FF
100
AcDbEntity
  8
0
  6
Continuous
 62
   142
100
AcDbPolyline
 90
        2
 70
     0
 43
0.4999999847
 10
44.7178878784
 20
32.89947128300001
 10
44.7461395264
 20
32.9962272644
  0
LWPOLYLINE
  5
586
330
1FF
100
AcDbEntity
  8
0
  6
Continuous
 62
   142
100
AcDbPolyline
 90
        2
 70
     0
 43
0.4999999847
 10
44.6438903809
 20
32.64610672
 10
44.7178878784
 20
32.89947128300001
  0
LWPOLYLINE
  5
587
330
1FF
100
AcDbEntity
  8
0
  6
Continuous
 62
   142
100
AcDbPolyline
 90
        2
 70
     0
 43
0.4999999847
 10
44.9496841431
 20
62.8913536072
 10
44.6976394653
 20
62.06071853640001
  0
LWPOLYLINE
  5
588
330
1FF
100
AcDbEntity
  8
0
  6
Continuous
 62
   142
100
AcDbPolyline
 90
        2
 70
     0
 43
0.4999999847
 10
36.2487945557
 20
40.53531265260001
 10
36.1454925537
 20
40.1961860657
  0
LWPOLYLINE
  5
589
330
1FF
100
AcDbEntity
  8
0
  6
Continuous
 62
   142
100
AcDbPolyline
 90
        2
 70
     0
 43
0.4999999847
 10
71.54289245609999
 20
146.6771125793
 10
71.5145568848
 20
146.5917396545
  0
LWPOLYLINE
  5
58A
330
1FF
100
AcDbEntity
  8
0
  6
Continuous
 62
   142
100
AcDbPolyline
 90
        2
 70
     0
 43
0.4999999847
 10
38.9581375122
 20
33.6017036438
 10
38.8973999023
 20
33.4290046692
  0
LWPOLYLINE
  5
58B
330
1FF
100
AcDbEntity
  8
0
  6
Continuous
 62
   142
100
AcDbPolyline
 90
        2
 70
     0
 43
0.4999999847
 10
45.0745239258
 20
67.739276886
 10
44.98388671879999
 20
67.4973640442
  0
LWPOLYLINE
  5
58C
330
1FF
100
AcDbEntity
  8
0
  6
Continuous
 62
   142
100
AcDbPolyline
 90
        2
 70
     0
 43
0.4999999847
 10
46.87731170649999
 20
97.9200782776
 10
46.5511322021
 20
97.24094009399999
  0
LWPOLYLINE
  5
58D
330
1FF
100
AcDbEntity
  8
0
  6
Continuous
 62
   142
100
AcDbPolyline
 90
        2
 70
     0
 43
0.4999999847
 10
71.5849456787
 20
146.7596473694
 10
71.54289245609999
 20
146.6771125793
  0
LWPOLYLINE
  5
58E
330
1FF
100
AcDbEntity
  8
0
  6
Continuous
 62
   142
100
AcDbPolyline
 90
        2
 70
     0
 43
0.4999999847
 10
16.8565750122
 20
57.0003013611
 10
16.7433166504
 20
56.81373977659998
  0
LWPOLYLINE
  5
58F
330
1FF
100
AcDbEntity
  8
0
  6
Continuous
 62
   142
100
AcDbPolyline
 90
        2
 70
     0
 43
0.4999999847
 10
16.6831359863
 20
53.7590446472
 10
16.6225891113
 20
53.6642723083
  0
LWPOLYLINE
  5
590
330
1FF
100
AcDbEntity
  8
0
  6
Continuous
 62
   142
100
AcDbPolyline
 90
        2
 70
     0
 43
0.4999999847
 10
16.7044219971
 20
53.79232406619999
 10
16.6831359863
 20
53.7590446472
  0
LWPOLYLINE
  5
591
330
1FF
100
AcDbEntity
  8
0
  6
Continuous
 62
   142
100
AcDbPolyline
 90
        2
 70
     0
 43
0.3500000019
 10
26.9525909424
 20
73.6677970886
 10
27.3989486694
 20
74.3368415833
  0
LWPOLYLINE
  5
592
330
1FF
100
AcDbEntity
  8
0
  6
Continuous
 62
   142
100
AcDbPolyline
 90
        2
 70
     0
 43
0.3500000019
 10
27.3989486694
 20
74.3368415833
 10
28.1894302368
 20
75.5216560364
  0
LWPOLYLINE
  5
593
330
1FF
100
AcDbEntity
  8
0
  6
Continuous
 62
   142
100
AcDbPolyline
 90
        2
 70
     0
 43
0.4999999847
 10
7.8547439575
 20
65.5439720154
 10
7.9308547974
 20
65.6515541077
  0
LWPOLYLINE
  5
594
330
1FF
100
AcDbEntity
  8
0
  6
Continuous
 62
   142
100
AcDbPolyline
 90
        2
 70
     0
 43
0.4999999847
 10
7.9308547974
 20
65.6515541077
 10
7.9998168945
 20
65.748966217
  0
LWPOLYLINE
  5
595
330
1FF
100
AcDbEntity
  8
0
  6
Continuous
 62
   142
100
AcDbPolyline
 90
        2
 70
     0
 43
0.3500000019
 10
71.4970397949
 20
146.6373176575
 10
71.5849456787
 20
146.7596473694
  0
LWPOLYLINE
  5
596
330
1FF
100
AcDbEntity
  8
0
  6
Continuous
 62
   142
100
AcDbPolyline
 90
        2
 70
     0
 43
0.3500000019
 10
71.0414276123
 20
147.2518806458
 10
70.9533538818
 20
147.1296272278
  0
LWPOLYLINE
  5
597
330
1FF
100
AcDbEntity
  8
0
  6
Continuous
 62
   142
100
AcDbPolyline
 90
        2
 70
     0
 43
0.4999999847
 10
54.1328811646
 20
137.6295814514
 10
45.46454620359999
 20
125.7930030823
  0
LWPOLYLINE
  5
598
330
1FF
100
AcDbEntity
  8
0
  6
Continuous
 62
   142
100
AcDbPolyline
 90
        2
 70
     0
 43
0.4999999847
 10
61.7719726562
 20
130.6170539856
 10
60.39186096189999
 20
128.8096351624
  0
LWPOLYLINE
  5
599
330
1FF
100
AcDbEntity
  8
0
  6
Continuous
 62
   142
100
AcDbPolyline
 90
        2
 70
     0
 43
0.4999999847
 10
18.4480667114
 20
79.7777137756
 10
25.7041091919
 20
89.2223396301
  0
LWPOLYLINE
  5
59A
330
1FF
100
AcDbEntity
  8
0
  6
Continuous
 62
   142
100
AcDbPolyline
 90
        2
 70
     0
 43
0.4999999847
 10
9.208724975599999
 20
87.19305801389999
 10
7.792945861799999
 20
85.66998672489999
  0
LWPOLYLINE
  5
59B
330
1FF
100
AcDbEntity
  8
0
  6
Continuous
 62
   142
100
AcDbPolyline
 90
        2
 70
     0
 43
0.4999999847
 10
7.792945861799999
 20
85.66998672489999
 10
7.433151245099998
 20
85.28293228149998
  0
LWPOLYLINE
  5
59C
330
1FF
100
AcDbEntity
  8
0
  6
Continuous
 62
   142
100
AcDbPolyline
 90
        2
 70
     0
 43
0.4999999847
 10
20.1346511841
 20
127.1865730286
 10
20.0723571777
 20
127.1415290833
  0
LWPOLYLINE
  5
59D
330
1FF
100
AcDbEntity
  8
0
  6
Continuous
 62
   142
100
AcDbPolyline
 90
        2
 70
     0
 43
0.4999999847
 10
23.3143234253
 20
138.3064155579
 10
23.6101989746
 20
138.4689674377
  0
LWPOLYLINE
  5
59E
330
1FF
100
AcDbEntity
  8
0
  6
Continuous
 62
   142
100
AcDbPolyline
 90
        2
 70
     0
 43
0.4999999847
 10
56.33637237550001
 20
149.4106178284
 10
58.5921783447
 20
150.61195755
  0
LWPOLYLINE
  5
59F
330
1FF
100
AcDbEntity
  8
0
  6
Continuous
 62
   142
100
AcDbPolyline
 90
        2
 70
     0
 43
0.4999999847
 10
55.66979980470001
 20
149.0556373596
 10
56.33637237550001
 20
149.4106178284
  0
LWPOLYLINE
  5
5A0
330
1FF
100
AcDbEntity
  8
0
  6
Continuous
 62
   142
100
AcDbPolyline
 90
        2
 70
     0
 43
0.4999999847
 10
64.04759216310001
 20
129.9084968567
 10
60.120513916
 20
131.131275177
  0
LWPOLYLINE
  5
5A1
330
1FF
100
AcDbEntity
  8
0
  6
Continuous
 62
   142
100
AcDbPolyline
 90
        2
 70
     0
 43
0.4999999847
 10
20.0659561157
 20
152.9664344788
 10
20.969291687
 20
152.6391792297
  0
LWPOLYLINE
  5
5A2
330
1FF
100
AcDbEntity
  8
0
  6
Continuous
 62
   142
100
AcDbPolyline
 90
        2
 70
     0
 43
0.4999999847
 10
44.7118377686
 20
156.0021705627
 10
44.4913864136
 20
156.1756782532
  0
LWPOLYLINE
  5
5A3
330
1FF
100
AcDbEntity
  8
0
  6
Continuous
 62
   142
100
AcDbPolyline
 90
        2
 70
     0
 43
0.3500000019
 10
70.97152709959998
 20
146.8630561829
 10
71.06689453119997
 20
146.7195167542
  0
LWPOLYLINE
  5
5A4
330
1FF
100
AcDbEntity
  8
0
  6
Continuous
 62
   142
100
AcDbPolyline
 90
        2
 70
     0
 43
0.4999999847
 10
71.4713745117
 20
147.1694374084
 10
71.5666503906
 20
147.0260505676
  0
LWPOLYLINE
  5
5A5
330
1FF
100
AcDbEntity
  8
0
  6
Continuous
 62
   142
100
AcDbPolyline
 90
        2
 70
     0
 43
0.4999999847
 10
71.5666503906
 20
147.0260505676
 10
71.598449707
 20
146.9111061096
  0
LWPOLYLINE
  5
5A6
330
1FF
100
AcDbEntity
  8
0
  6
Continuous
 62
   142
100
AcDbPolyline
 90
        2
 70
     0
 43
0.3500000019
 10
70.939743042
 20
146.9781074524
 10
70.9674377441
 20
146.8779029846
  0
LWPOLYLINE
  5
5A7
330
1FF
100
AcDbEntity
  8
0
  6
Continuous
 62
   142
100
AcDbPolyline
 90
        2
 70
     0
 43
0.3500000019
 10
70.9674377441
 20
146.8779029846
 10
70.97152709959998
 20
146.8630561829
  0
LWPOLYLINE
  5
5A8
330
1FF
100
AcDbEntity
  8
0
  6
Continuous
 62
   142
100
AcDbPolyline
 90
        2
 70
     0
 43
0.4999999847
 10
71.74671936039998
 20
144.832660675
 10
71.9421234131
 20
143.7694892883
  0
LWPOLYLINE
  5
5A9
330
1FF
100
AcDbEntity
  8
0
  6
Continuous
 62
   142
100
AcDbPolyline
 90
        2
 70
     0
 43
0.4999999847
 10
71.9421234131
 20
143.7694892883
 10
72.7769775391
 20
138.5427894592
  0
LWPOLYLINE
  5
5AA
330
1FF
100
AcDbEntity
  8
0
  6
Continuous
 62
   142
100
AcDbPolyline
 90
        2
 70
     0
 43
0.4999999847
 10
71.5666656494
 20
146.0292854309
 10
71.74671936039998
 20
144.832660675
  0
LWPOLYLINE
  5
5AB
330
1FF
100
AcDbEntity
  8
0
  6
Continuous
 62
   142
100
AcDbPolyline
 90
        2
 70
     0
 43
0.4999999847
 10
71.5204772949
 20
146.4327278137
 10
71.5666656494
 20
146.0292854309
  0
LWPOLYLINE
  5
5AC
330
1FF
100
AcDbEntity
  8
0
  6
Continuous
 62
   142
100
AcDbPolyline
 90
        2
 70
     0
 43
0.4999999847
 10
73.60638427729998
 20
7.560272216799999
 10
73.3663024902
 20
3.6476898193
  0
LWPOLYLINE
  5
5AD
330
1FF
100
AcDbEntity
  8
0
  6
Continuous
 62
   142
100
AcDbPolyline
 90
        2
 70
     0
 43
0.4999999847
 10
76.75900268550001
 20
4.245258331299998
 10
76.5285491943
 20
0.8060836791999999
  0
LWPOLYLINE
  5
5AE
330
1FF
100
AcDbEntity
  8
0
  6
Continuous
 62
   142
100
AcDbPolyline
 90
        2
 70
     0
 43
0.4999999847
 10
79.62403869630001
 20
11.4521903992
 10
79.58097839359999
 20
10.8463554382
  0
LWPOLYLINE
  5
5AF
330
1FF
100
AcDbEntity
  8
0
  6
Continuous
 62
   142
100
AcDbPolyline
 90
        2
 70
     0
 43
0.3500000019
 10
76.75755310060002
 20
4.2300033569
 10
76.7966918945
 20
4.639072418199998
  0
LWPOLYLINE
  5
5B0
330
1FF
100
AcDbEntity
  8
0
  6
Continuous
 62
   142
100
AcDbPolyline
 90
        2
 70
     0
 43
0.4999999847
 10
69.38529968260001
 20
29.1097755432
 10
69.4964752197
 20
30.1272926331
  0
LWPOLYLINE
  5
5B1
330
1FF
100
AcDbEntity
  8
0
  6
Continuous
 62
   142
100
AcDbPolyline
 90
        2
 70
     0
 43
0.4999999847
 10
70.5085449219
 20
37.8844947815
 10
71.6045532227
 20
46.5448875427
  0
LWPOLYLINE
  5
5B2
330
1FF
100
AcDbEntity
  8
0
  6
Continuous
 62
   142
100
AcDbPolyline
 90
        2
 70
     0
 43
0.4999999847
 10
69.36614990229999
 20
29.1010627747
 10
69.5832977295
 20
30.8108329773
  0
LWPOLYLINE
  5
5B3
330
1FF
100
AcDbEntity
  8
0
  6
Continuous
 62
   142
100
AcDbPolyline
 90
        2
 70
     0
 43
0.4999999847
 10
69.6483917236
 20
31.3019981384
 10
69.9356994629
 20
33.5007820129
  0
LWPOLYLINE
  5
5B4
330
1FF
100
AcDbEntity
  8
0
  6
Continuous
 62
   142
100
AcDbPolyline
 90
        2
 70
     0
 43
0.4999999847
 10
69.9356994629
 20
33.5007820129
 10
70.5085449219
 20
37.8844947815
  0
LWPOLYLINE
  5
5B5
330
1FF
100
AcDbEntity
  8
0
  6
Continuous
 62
   142
100
AcDbPolyline
 90
        2
 70
     0
 43
0.4999999847
 10
69.35604858399999
 20
29.096446991
 10
69.6483917236
 20
31.3019981384
  0
LWPOLYLINE
  5
5B6
330
1FF
100
AcDbEntity
  8
0
  6
Continuous
 62
   142
100
AcDbPolyline
 90
        2
 70
     0
 43
0.4999999847
 10
71.03280639649999
 20
70.30551528930001
 10
71.0998535156
 20
70.7452583313
  0
LWPOLYLINE
  5
5B7
330
1FF
100
AcDbEntity
  8
0
  6
Continuous
 62
   142
100
AcDbPolyline
 90
        2
 70
     0
 43
0.4999999847
 10
69.68980407710001
 20
10.9876289368
 10
69.7037200928
 20
11.0707588196
  0
LWPOLYLINE
  5
5B8
330
1FF
100
AcDbEntity
  8
0
  6
Continuous
 62
   142
100
AcDbPolyline
 90
        2
 70
     0
 43
0.4999999847
 10
69.7037200928
 20
11.0707588196
 10
69.72689819340001
 20
11.2091407776
  0
LWPOLYLINE
  5
5B9
330
1FF
100
AcDbEntity
  8
0
  6
Continuous
 62
   142
100
AcDbPolyline
 90
        2
 70
     0
 43
0.4999999847
 10
61.05688476560001
 20
15.8465843201
 10
61.0320892334
 20
15.7217674255
  0
LWPOLYLINE
  5
5BA
330
1FF
100
AcDbEntity
  8
0
  6
Continuous
 62
   142
100
AcDbPolyline
 90
        2
 70
     0
 43
0.4999999847
 10
72.80854797359999
 20
113.7260627747
 10
72.6150054932
 20
112.9458198547
  0
LWPOLYLINE
  5
5BB
330
1FF
100
AcDbEntity
  8
0
  6
Continuous
 62
   142
100
AcDbPolyline
 90
        2
 70
     0
 43
0.4999999847
 10
49.9852752686
 20
23.066318512
 10
49.9482650757
 20
22.9305076599
  0
LWPOLYLINE
  5
5BC
330
1FF
100
AcDbEntity
  8
0
  6
Continuous
 62
   142
100
AcDbPolyline
 90
        2
 70
     0
 43
0.4999999847
 10
58.0263442993
 20
21.2136726379
 10
57.92603301999999
 20
20.8450508118
  0
LWPOLYLINE
  5
5BD
330
1FF
100
AcDbEntity
  8
0
  6
Continuous
 62
   142
100
AcDbPolyline
 90
        2
 70
     0
 43
0.4999999847
 10
72.6150054932
 20
112.9458198547
 10
72.2276916504
 20
112.2613868713
  0
LWPOLYLINE
  5
5BE
330
1FF
100
AcDbEntity
  8
0
  6
Continuous
 62
   142
100
AcDbPolyline
 90
        2
 70
     0
 43
0.4999999847
 10
56.604309082
 20
109.3669013977
 10
56.32994842529999
 20
108.8962593079
  0
LWPOLYLINE
  5
5BF
330
1FF
100
AcDbEntity
  8
0
  6
Continuous
 62
   142
100
AcDbPolyline
 90
        2
 70
     0
 43
0.4999999847
 10
42.64822387699999
 20
78.19403457639999
 10
42.7822723389
 20
78.4236335754
  0
LWPOLYLINE
  5
5C0
330
1FF
100
AcDbEntity
  8
0
  6
Continuous
 62
   142
100
AcDbPolyline
 90
        2
 70
     0
 43
0.4999999847
 10
59.88993835449999
 20
98.1136054993
 10
59.33821105959999
 20
97.19711685180001
  0
LWPOLYLINE
  5
5C1
330
1FF
100
AcDbEntity
  8
0
  6
Continuous
 62
   142
100
AcDbPolyline
 90
        2
 70
     0
 43
0.4999999847
 10
56.32994842529999
 20
108.8962593079
 10
56.3349838257
 20
108.9045448303
  0
LWPOLYLINE
  5
5C2
330
1FF
100
AcDbEntity
  8
0
  6
Continuous
 62
   142
100
AcDbPolyline
 90
        2
 70
     0
 43
0.4999999847
 10
71.6676025391
 20
133.9776649475
 10
70.2816314697
 20
131.8754768372
  0
LWPOLYLINE
  5
5C3
330
1FF
100
AcDbEntity
  8
0
  6
Continuous
 62
   142
100
AcDbPolyline
 90
        2
 70
     0
 43
0.4999999847
 10
72.1937408447
 20
134.7756843567
 10
71.6676025391
 20
133.9776649475
  0
LWPOLYLINE
  5
5C4
330
1FF
100
AcDbEntity
  8
0
  6
Continuous
 62
   142
100
AcDbPolyline
 90
        2
 70
     0
 43
0.4999999847
 10
20.995513916
 20
53.8816184998
 10
21.1431274414
 20
54.0981712341
  0
LWPOLYLINE
  5
5C5
330
1FF
100
AcDbEntity
  8
0
  6
Continuous
 62
   142
100
AcDbPolyline
 90
        2
 70
     0
 43
0.4999999847
 10
56.3024291992
 20
109.0646400452
 10
56.6289291382
 20
109.4617652893
  0
LWPOLYLINE
  5
5C6
330
1FF
100
AcDbEntity
  8
0
  6
Continuous
 62
   142
100
AcDbPolyline
 90
        2
 70
     0
 43
0.4999999847
 10
28.9083328247
 20
76.34245681760001
 10
31.871131897
 20
79.90965652469999
  0
LWPOLYLINE
  5
5C7
330
1FF
100
AcDbEntity
  8
0
  6
Continuous
 62
   142
100
AcDbPolyline
 90
        2
 70
     0
 43
0.4999999847
 10
34.9383926392
 20
83.55589675899999
 10
41.1781616211
 20
91.03651809690001
  0
LWPOLYLINE
  5
5C8
330
1FF
100
AcDbEntity
  8
0
  6
Continuous
 62
   142
100
AcDbPolyline
 90
        2
 70
     0
 43
0.4999999847
 10
46.7570343018
 20
97.66963577270001
 10
45.0647277832
 20
95.64220047
  0
LWPOLYLINE
  5
5C9
330
1FF
100
AcDbEntity
  8
0
  6
Continuous
 62
   142
100
AcDbPolyline
 90
        2
 70
     0
 43
0.4999999847
 10
56.62641143800001
 20
109.4519844055
 10
51.5815429688
 20
103.420337677
  0
LWPOLYLINE
  5
5CA
330
1FF
100
AcDbEntity
  8
0
  6
Continuous
 62
   142
100
AcDbPolyline
 90
        2
 70
     0
 43
0.4999999847
 10
5.0400619507
 20
68.3184165955
 10
4.9422073364
 20
68.2061195374
  0
LWPOLYLINE
  5
5CB
330
1FF
100
AcDbEntity
  8
0
  6
Continuous
 62
   142
100
AcDbPolyline
 90
        2
 70
     0
 43
0.4999999847
 10
21.531829834
 20
75.9212837219
 10
21.8784637451
 20
76.315448761
  0
LWPOLYLINE
  5
5CC
330
1FF
100
AcDbEntity
  8
0
  6
Continuous
 62
   142
100
AcDbPolyline
 90
        2
 70
     0
 43
0.4999999847
 10
20.155960083
 20
74.3567848206
 10
21.531829834
 20
75.9212837219
  0
LWPOLYLINE
  5
5CD
330
1FF
100
AcDbEntity
  8
0
  6
Continuous
 62
   142
100
AcDbPolyline
 90
        2
 70
     0
 43
0.4999999847
 10
18.7164230347
 20
137.0252113342
 10
19.4848632813
 20
137.2724189758
  0
LWPOLYLINE
  5
5CE
330
1FF
100
AcDbEntity
  8
0
  6
Continuous
 62
   142
100
AcDbPolyline
 90
        2
 70
     0
 43
0.4999999847
 10
67.41981506350001
 20
130.2176551819
 10
64.7310791016
 20
129.9711647034
  0
LWPOLYLINE
  5
5CF
330
1FF
100
AcDbEntity
  8
0
  6
Continuous
 62
   142
100
AcDbPolyline
 90
        2
 70
     0
 43
0.4999999847
 10
64.7310791016
 20
129.9711647034
 10
64.04759216310001
 20
129.9084968567
  0
LWPOLYLINE
  5
5D0
330
1FF
100
AcDbEntity
  8
0
  6
Continuous
 62
   142
100
AcDbPolyline
 90
        2
 70
     0
 43
0.3500000019
 10
34.17025756840001
 20
137.5825080872
 10
33.0083618164
 20
137.5779151917
  0
LWPOLYLINE
  5
5D1
330
1FF
100
AcDbEntity
  8
0
  6
Continuous
 62
   142
100
AcDbPolyline
 90
        2
 70
     0
 43
0.4999999847
 10
30.9732131958
 20
132.0650520325
 10
30.7994003296
 20
132.0703163147
  0
LWPOLYLINE
  5
5D2
330
1FF
100
AcDbEntity
  8
0
  6
Continuous
 62
   142
100
AcDbPolyline
 90
        2
 70
     0
 43
0.4999999847
 10
10.3094406128
 20
144.6117744446
 10
9.968498229999999
 20
144.6463508606
  0
LWPOLYLINE
  5
5D3
330
1FF
100
AcDbEntity
  8
0
  6
Continuous
 62
   142
100
AcDbPolyline
 90
        2
 70
     0
 43
0.4999999847
 10
61.9541168213
 20
150.8192939758
 10
64.74778747560001
 20
149.8888435364
  0
LWPOLYLINE
  5
5D4
330
1FF
100
AcDbEntity
  8
0
  6
Continuous
 62
   142
100
AcDbPolyline
 90
        2
 70
     0
 43
0.4999999847
 10
64.74778747560001
 20
149.8888435364
 10
65.79682922359999
 20
149.5394630432
  0
LWPOLYLINE
  5
5D5
330
1FF
100
AcDbEntity
  8
0
  6
Continuous
 62
   142
100
AcDbPolyline
 90
        2
 70
     0
 43
0.4999999847
 10
70.1681518555
 20
147.5561714172
 10
70.7373504639
 20
147.3474006653
  0
LWPOLYLINE
  5
5D6
330
1FF
100
AcDbEntity
  8
0
  6
Continuous
 62
   142
100
AcDbPolyline
 90
        2
 70
     0
 43
0.4999999847
 10
70.7373504639
 20
147.3474006653
 10
70.8996582031
 20
147.2877845764
  0
LWPOLYLINE
  5
5D7
330
1FF
100
AcDbEntity
  8
0
  6
Continuous
 62
   142
100
AcDbPolyline
 90
        2
 70
     0
 43
0.4999999847
 10
65.79682922359999
 20
149.5394630432
 10
67.79522705079999
 20
148.6472816467
  0
LWPOLYLINE
  5
5D8
330
1FF
100
AcDbEntity
  8
0
  6
Continuous
 62
   142
100
AcDbPolyline
 90
        2
 70
     0
 43
0.4999999847
 10
67.79522705079999
 20
148.6472816467
 10
70.1681518555
 20
147.5561714172
  0
LWPOLYLINE
  5
5D9
330
1FF
100
AcDbEntity
  8
0
  6
Continuous
 62
   142
100
AcDbPolyline
 90
        2
 70
     0
 43
0.4999999847
 10
44.2586288452
 20
156.4287147522
 10
43.54854583739999
 20
156.7966194153
  0
LWPOLYLINE
  5
5DA
330
1FF
100
AcDbEntity
  8
0
  6
Continuous
 62
   142
100
AcDbPolyline
 90
        2
 70
     0
 43
0.4999999847
 10
24.2705535889
 20
169.666934967
 10
23.5664138794
 20
170.0368232727
  0
LWPOLYLINE
  5
5DB
330
1FF
100
AcDbEntity
  8
0
  6
Continuous
 62
   142
100
AcDbPolyline
 90
        2
 70
     0
 43
0.4999999847
 10
16.2025756836
 20
171.991733551
 10
3.1915588379
 20
178.9211616516
  0
LWPOLYLINE
  5
5DC
330
1FF
100
AcDbEntity
  8
0
  6
Continuous
 62
   142
100
AcDbPolyline
 90
        2
 70
     0
 43
0.4999999847
 10
3.2041015625
 20
178.9143409729
 10
3.2437744141
 20
178.8927955627
  0
LWPOLYLINE
  5
5DD
330
1FF
100
AcDbEntity
  8
0
  6
Continuous
 62
   142
100
AcDbPolyline
 90
        2
 70
     0
 43
0.3500000019
 10
71.06689453119997
 20
146.7195167542
 10
71.2039642334
 20
146.6214942932
  0
LWPOLYLINE
  5
5DE
330
1FF
100
AcDbEntity
  8
0
  6
Continuous
 62
   142
100
AcDbPolyline
 90
        2
 70
     0
 43
0.4999999847
 10
71.3344573975
 20
147.2674446106
 10
71.4713745117
 20
147.1694374084
  0
LWPOLYLINE
  5
5DF
330
1FF
100
AcDbEntity
  8
0
  6
Continuous
 62
   142
100
AcDbPolyline
 90
        2
 70
     0
 43
0.4999999847
 10
83.9225006104
 20
3.3524246216
 10
84.24928283689999
 20
7.4696846008
  0
LWPOLYLINE
  5
5E0
330
1FF
100
AcDbEntity
  8
0
  6
Continuous
 62
   142
100
AcDbPolyline
 90
        2
 70
     0
 43
0.4999999847
 10
70.7650604248
 20
69.6409645081
 10
71.03280639649999
 20
70.30551528930001
  0
LWPOLYLINE
  5
5E1
330
1FF
100
AcDbEntity
  8
0
  6
Continuous
 62
   142
100
AcDbPolyline
 90
        2
 70
     0
 43
0.4999999847
 10
47.2747268677
 20
29.4319496155
 10
47.1694946289
 20
29.2069129944
  0
LWPOLYLINE
  5
5E2
330
1FF
100
AcDbEntity
  8
0
  6
Continuous
 62
   142
100
AcDbPolyline
 90
        2
 70
     0
 43
0.4999999847
 10
45.4233016968
 20
68.8387184143
 10
45.17752075199998
 20
68.44717025760001
  0
LWPOLYLINE
  5
5E3
330
1FF
100
AcDbEntity
  8
0
  6
Continuous
 62
   142
100
AcDbPolyline
 90
        2
 70
     0
 43
0.4999999847
 10
30.7658538818
 20
45.2065162659
 10
30.9144744873
 20
45.4336051941
  0
LWPOLYLINE
  5
5E5
330
1FF
100
AcDbEntity
  8
0
  6
Continuous
 62
   142
100
AcDbPolyline
 90
        2
 70
     0
 43
0.3500000019
 10
58.7083129883
 20
96.8090705872
 10
59.2037811279
 20
97.44614028930001
  0
LWPOLYLINE
  5
5E6
330
1FF
100
AcDbEntity
  8
0
  6
Continuous
 62
   142
100
AcDbPolyline
 90
        2
 70
     0
 43
0.4999999847
 10
62.10676574709999
 20
100.6992378235
 10
59.88993835449999
 20
98.1136054993
  0
LWPOLYLINE
  5
5E7
330
1FF
100
AcDbEntity
  8
0
  6
Continuous
 62
   142
100
AcDbPolyline
 90
        2
 70
     0
 43
0.4999999847
 10
42.7822723389
 20
78.4236335754
 10
48.36256408689999
 20
84.81717300419999
  0
LWPOLYLINE
  5
5E8
330
1FF
100
AcDbEntity
  8
0
  6
Continuous
 62
   142
100
AcDbPolyline
 90
        2
 70
     0
 43
0.4999999847
 10
31.3778305054
 20
65.33491134640001
 10
31.5980911255
 20
65.58700942989999
  0
LWPOLYLINE
  5
5E9
330
1FF
100
AcDbEntity
  8
0
  6
Continuous
 62
   142
100
AcDbPolyline
 90
        2
 70
     0
 43
0.4999999847
 10
31.9218215942
 20
65.9331626892
 10
36.1750335693
 20
70.7985343933
  0
LWPOLYLINE
  5
5EA
330
1FF
100
AcDbEntity
  8
0
  6
Continuous
 62
   142
100
AcDbPolyline
 90
        2
 70
     0
 43
0.4999999847
 10
72.2276916504
 20
112.2613868713
 10
59.5767593384
 20
97.80896377559999
  0
LWPOLYLINE
  5
5EB
330
1FF
100
AcDbEntity
  8
0
  6
Continuous
 62
   142
100
AcDbPolyline
 90
        2
 70
     0
 43
0.4999999847
 10
31.9284591675
 20
79.79069900510001
 10
28.1894302368
 20
75.5216560364
  0
LWPOLYLINE
  5
5EC
330
1FF
100
AcDbEntity
  8
0
  6
Continuous
 62
   142
100
AcDbPolyline
 90
        2
 70
     0
 43
0.4999999847
 10
16.9795150757
 20
57.13615036010001
 10
16.8565750122
 20
57.0003013611
  0
LWPOLYLINE
  5
5ED
330
1FF
100
AcDbEntity
  8
0
  6
Continuous
 62
   142
100
AcDbPolyline
 90
        2
 70
     0
 43
0.4999999847
 10
0.3907241821
 20
72.34956741329998
 10
0.5577545166000001
 20
72.4747200012
  0
LWPOLYLINE
  5
5EE
330
1FF
100
AcDbEntity
  8
0
  6
Continuous
 62
   142
100
AcDbPolyline
 90
        2
 70
     0
 43
0.4999999847
 10
69.6342468262
 20
131.5004615784
 10
67.41981506350001
 20
130.2176551819
  0
LWPOLYLINE
  5
5EF
330
1FF
100
AcDbEntity
  8
0
  6
Continuous
 62
   142
100
AcDbPolyline
 90
        2
 70
     0
 43
0.4999999847
 10
70.2816314697
 20
131.8754768372
 10
69.6342468262
 20
131.5004615784
  0
LWPOLYLINE
  5
5F0
330
1FF
100
AcDbEntity
  8
0
  6
Continuous
 62
   142
100
AcDbPolyline
 90
        2
 70
     0
 43
0.3500000019
 10
71.3616638184
 20
146.5899848938
 10
71.4970397949
 20
146.6373176575
  0
LWPOLYLINE
  5
5F1
330
1FF
100
AcDbEntity
  8
0
  6
Continuous
 62
   142
100
AcDbPolyline
 90
        2
 70
     0
 43
0.3500000019
 10
71.17683410640001
 20
147.2990608215
 10
71.0414276123
 20
147.2518806458
  0
LWPOLYLINE
  5
5F2
330
1FF
100
AcDbEntity
  8
0
  6
Continuous
 62
   142
100
AcDbPolyline
 90
        2
 70
     0
 43
0.3500000019
 10
35.0194702148
 20
137.7306861877
 10
34.1823806763
 20
137.5846138
  0
LWPOLYLINE
  5
5F3
330
1FF
100
AcDbEntity
  8
0
  6
Continuous
 62
   142
100
AcDbPolyline
 90
        2
 70
     0
 43
0.3500000019
 10
34.1823806763
 20
137.5846138
 10
34.17025756840001
 20
137.5825080872
  0
LWPOLYLINE
  5
5F4
330
1FF
100
AcDbEntity
  8
0
  6
Continuous
 62
   142
100
AcDbPolyline
 90
        2
 70
     0
 43
0.4999999847
 10
18.230140686
 20
136.9841041565
 10
18.7164230347
 20
137.0252113342
  0
LWPOLYLINE
  5
5F5
330
1FF
100
AcDbEntity
  8
0
  6
Continuous
 62
   142
100
AcDbPolyline
 90
        2
 70
     0
 43
0.4999999847
 10
71.03480529789997
 20
147.2745704651
 10
71.06796264649999
 20
147.2761726379
  0
LWPOLYLINE
  5
5F6
330
1FF
100
AcDbEntity
  8
0
  6
Continuous
 62
   142
100
AcDbPolyline
 90
        2
 70
     0
 43
0.4999999847
 10
70.99519348140001
 20
147.276966095
 10
71.03480529789997
 20
147.2745704651
  0
LWPOLYLINE
  5
5F7
330
1FF
100
AcDbEntity
  8
0
  6
Continuous
 62
   142
100
AcDbPolyline
 90
        2
 70
     0
 43
0.4999999847
 10
21.0124664307
 20
152.5961036682
 10
20.8784408569
 20
152.6091957092
  0
LWPOLYLINE
  5
5F8
330
1FF
100
AcDbEntity
  8
0
  6
Continuous
 62
   142
100
AcDbPolyline
 90
        2
 70
     0
 43
0.4999999847
 10
70.87780761720001
 20
147.2902565002
 10
70.99519348140001
 20
147.276966095
  0
LWPOLYLINE
  5
5F9
330
1FF
100
AcDbEntity
  8
0
  6
Continuous
 62
   142
100
AcDbPolyline
 90
        2
 70
     0
 43
0.4999999847
 10
1.7113723755
 20
161.9412879944
 10
3.259536743199998
 20
161.7514533997
  0
LWPOLYLINE
  5
5FA
330
1FF
100
AcDbEntity
  8
0
  6
Continuous
 62
   142
100
AcDbPolyline
 90
        2
 70
     0
 43
0.4999999847
 10
1.1138687134
 20
162.0145454407
 10
1.7113723755
 20
161.9412879944
  0
LWPOLYLINE
  5
5FB
330
1FF
100
AcDbEntity
  8
0
  6
Continuous
 62
   142
100
AcDbPolyline
 90
        2
 70
     0
 43
0.3500000019
 10
71.2039642334
 20
146.6214942932
 10
71.3616638184
 20
146.5899848938
  0
LWPOLYLINE
  5
5FC
330
1FF
100
AcDbEntity
  8
0
  6
Continuous
 62
   142
100
AcDbPolyline
 90
        2
 70
     0
 43
0.4999999847
 10
71.17683410640001
 20
147.2990608215
 10
71.3344573975
 20
147.2674446106
  0
LWPOLYLINE
  5
5FD
330
1FF
100
AcDbEntity
  8
0
  6
Continuous
 62
   142
100
AcDbPolyline
 90
        2
 70
     0
 43
0.4999999847
 10
23.5664138794
 20
170.0368232727
 10
23.244354248
 20
170.1323738098
  0
LWPOLYLINE
  5
5FE
330
1FF
100
AcDbEntity
  8
0
  6
Continuous
 62
   142
100
AcDbPolyline
 90
        2
 70
     0
 43
0.4999999847
 10
43.54854583739999
 20
156.7966194153
 10
43.1932525635
 20
156.906955719
  0
LWPOLYLINE
  5
5FF
330
1FF
100
AcDbEntity
  8
0
  6
Continuous
 62
   142
100
AcDbPolyline
 90
        2
 70
     0
 43
0.4999999847
 10
73.6548309326
 20
7.7594413757
 10
73.60638427729998
 20
7.560272216799999
  0
LWPOLYLINE
  5
600
330
1FF
100
AcDbEntity
  8
0
  6
Continuous
 62
   142
100
AcDbPolyline
 90
        2
 70
     0
 43
0.4999999847
 10
73.6553344727
 20
7.761463165299998
 10
73.6548309326
 20
7.7594413757
  0
LWPOLYLINE
  5
601
330
1FF
100
AcDbEntity
  8
0
  6
Continuous
 62
   142
100
AcDbPolyline
 90
        2
 70
     0
 43
0.3500000019
 10
75.30094909669998
 20
2.9277458191
 10
75.3899841309
 20
3.2673912048
  0
LWPOLYLINE
  5
602
330
1FF
100
AcDbEntity
  8
0
  6
Continuous
 62
   142
100
AcDbPolyline
 90
        2
 70
     0
 43
0.4999999847
 10
47.38356018069999
 20
29.644908905
 10
47.2747268677
 20
29.4319496155
  0
LWPOLYLINE
  5
603
330
1FF
100
AcDbEntity
  8
0
  6
Continuous
 62
   142
100
AcDbPolyline
 90
        2
 70
     0
 43
0.4999999847
 10
47.0620727539
 20
26.4523658752
 10
46.98753356930001
 20
26.3074836731
  0
LWPOLYLINE
  5
604
330
1FF
100
AcDbEntity
  8
0
  6
Continuous
 62
   142
100
AcDbPolyline
 90
        2
 70
     0
 43
0.4999999847
 10
41.4326553345
 20
35.7547035217
 10
41.58501434329999
 20
35.9852104187
  0
LWPOLYLINE
  5
605
330
1FF
100
AcDbEntity
  8
0
  6
Continuous
 62
   142
100
AcDbPolyline
 90
        2
 70
     0
 43
0.4999999847
 10
45.7717285156
 20
69.21993637079999
 10
45.4233016968
 20
68.8387184143
  0
LWPOLYLINE
  5
606
330
1FF
100
AcDbEntity
  8
0
  6
Continuous
 62
   142
100
AcDbPolyline
 90
        2
 70
     0
 43
0.4999999847
 10
46.01757812499999
 20
69.48891067499999
 10
45.86057281489998
 20
69.3171348572
  0
LWPOLYLINE
  5
607
330
1FF
100
AcDbEntity
  8
0
  6
Continuous
 62
   142
100
AcDbPolyline
 90
        2
 70
     0
 43
0.4999999847
 10
45.86057281489998
 20
69.3171348572
 10
45.7717285156
 20
69.21993637079999
  0
LWPOLYLINE
  5
608
330
1FF
100
AcDbEntity
  8
0
  6
Continuous
 62
   142
100
AcDbPolyline
 90
        2
 70
     0
 43
0.4999999847
 10
31.5980911255
 20
65.58700942989999
 10
31.9218215942
 20
65.9331626892
  0
LWPOLYLINE
  5
609
330
1FF
100
AcDbEntity
  8
0
  6
Continuous
 62
   142
100
AcDbPolyline
 90
        2
 70
     0
 43
0.4999999847
 10
13.530921936
 20
60.97725296020001
 10
13.3320388794
 20
60.8233070374
  0
LWPOLYLINE
  5
60A
330
1FF
100
AcDbEntity
  8
0
  6
Continuous
 62
   142
100
AcDbPolyline
 90
        2
 70
     0
 43
0.4999999847
 10
51.9904708862
 20
103.9092445374
 10
51.6899108887
 20
103.7324256897
  0
LWPOLYLINE
  5
60B
330
1FF
100
AcDbEntity
  8
0
  6
Continuous
 62
   142
100
AcDbPolyline
 90
        2
 70
     0
 43
0.3500000019
 10
35.7314758301
 20
137.9314613342
 10
35.0194702148
 20
137.7306861877
  0
LWPOLYLINE
  5
60C
330
1FF
100
AcDbEntity
  8
0
  6
Continuous
 62
   142
100
AcDbPolyline
 90
        2
 70
     0
 43
0.4999999847
 10
19.1299438477
 20
137.1765785217
 10
23.3143234253
 20
138.3064155579
  0
LWPOLYLINE
  5
60D
330
1FF
100
AcDbEntity
  8
0
  6
Continuous
 62
   142
100
AcDbPolyline
 90
        2
 70
     0
 43
0.4999999847
 10
71.0546569824
 20
147.2733802795
 10
71.17683410640001
 20
147.2990608215
  0
LWPOLYLINE
  5
60E
330
1FF
100
AcDbEntity
  8
0
  6
Continuous
 62
   142
100
AcDbPolyline
 90
        2
 70
     0
 43
0.4999999847
 10
9.968498229999999
 20
144.6463508606
 10
9.379501342799999
 20
144.5736427307
  0
LWPOLYLINE
  5
60F
330
1FF
100
AcDbEntity
  8
0
  6
Continuous
 62
   142
100
AcDbPolyline
 90
        2
 70
     0
 43
0.4999999847
 10
61.2779083252
 20
150.7776069641
 10
61.9541168213
 20
150.8192939758
  0
LWPOLYLINE
  5
610
330
1FF
100
AcDbEntity
  8
0
  6
Continuous
 62
   142
100
AcDbPolyline
 90
        2
 70
     0
 43
0.4999999847
 10
58.5921783447
 20
150.61195755
 10
61.2779083252
 20
150.7776069641
  0
LWPOLYLINE
  5
611
330
1FF
100
AcDbEntity
  8
0
  6
Continuous
 62
   142
100
AcDbPolyline
 90
        2
 70
     0
 43
0.4999999847
 10
43.1932525635
 20
156.906955719
 10
42.78922271729999
 20
156.944355011
  0
LWPOLYLINE
  5
612
330
1FF
100
AcDbEntity
  8
0
  6
Continuous
 62
   142
100
AcDbPolyline
 90
        2
 70
     0
 43
0.3500000019
 10
6.4953994751
 20
167.337223053
 10
6.9646453857
 20
167.2724189758
  0
LWPOLYLINE
  5
613
330
1FF
100
AcDbEntity
  8
0
  6
Continuous
 62
   142
100
AcDbPolyline
 90
        2
 70
     0
 43
0.3500000019
 10
15.6256256104
 20
172.0881385803
 10
16.2025756836
 20
171.991733551
  0
LWPOLYLINE
  5
614
330
1FF
100
AcDbEntity
  8
0
  6
Continuous
 62
   142
100
AcDbPolyline
 90
        2
 70
     0
 43
0.3500000019
 10
14.1073455811
 20
172.3418312073
 10
15.6256256104
 20
172.0881385803
  0
LWPOLYLINE
  5
615
330
1FF
100
AcDbEntity
  8
0
  6
Continuous
 62
   142
100
AcDbPolyline
 90
        2
 70
     0
 43
0.3500000019
 10
66.08215332029999
 20
10.7014732361
 10
66.21705627439999
 20
11.0463218689
  0
LWPOLYLINE
  5
616
330
1FF
100
AcDbEntity
  8
0
  6
Continuous
 62
   142
100
AcDbPolyline
 90
        2
 70
     0
 43
0.4999999847
 10
76.22927856449999
 20
5.3854980469
 10
75.61154174800001
 20
3.8182525635
  0
LWPOLYLINE
  5
617
330
1FF
100
AcDbEntity
  8
0
  6
Continuous
 62
   142
100
AcDbPolyline
 90
        2
 70
     0
 43
0.4999999847
 10
52.2430114746
 20
26.3352851868
 10
52.3155441284
 20
26.4566001892
  0
LWPOLYLINE
  5
618
330
1FF
100
AcDbEntity
  8
0
  6
Continuous
 62
   142
100
AcDbPolyline
 90
        2
 70
     0
 43
0.4999999847
 10
52.16548919680001
 20
26.2056388855
 10
52.2430114746
 20
26.3352851868
  0
LWPOLYLINE
  5
619
330
1FF
100
AcDbEntity
  8
0
  6
Continuous
 62
   142
100
AcDbPolyline
 90
        2
 70
     0
 43
0.4999999847
 10
70.57511901859999
 20
69.4047584534
 10
70.7650604248
 20
69.6409645081
  0
LWPOLYLINE
  5
61A
330
1FF
100
AcDbEntity
  8
0
  6
Continuous
 62
   142
100
AcDbPolyline
 90
        2
 70
     0
 43
0.4999999847
 10
70.50421142579998
 20
69.3415412903
 10
70.43382263179998
 20
69.26074600220001
  0
LWPOLYLINE
  5
61B
330
1FF
100
AcDbEntity
  8
0
  6
Continuous
 62
   142
100
AcDbPolyline
 90
        2
 70
     0
 43
0.4999999847
 10
44.841506958
 20
62.5348243713
 10
44.7854537964
 20
62.4839668274
  0
LWPOLYLINE
  5
61C
330
1FF
100
AcDbEntity
  8
0
  6
Continuous
 62
   142
100
AcDbPolyline
 90
        2
 70
     0
 43
0.4999999847
 10
23.8726272583
 20
51.5157966614
 10
24.0459442139
 20
51.6582984924
  0
LWPOLYLINE
  5
61D
330
1FF
100
AcDbEntity
  8
0
  6
Continuous
 62
   142
100
AcDbPolyline
 90
        2
 70
     0
 43
0.4999999847
 10
16.8113250732
 20
53.87338638310001
 10
16.7044219971
 20
53.79232406619999
  0
LWPOLYLINE
  5
61E
330
1FF
100
AcDbEntity
  8
0
  6
Continuous
 62
   142
100
AcDbPolyline
 90
        2
 70
     0
 43
0.4999999847
 10
5.1593933105
 20
68.3894538879
 10
5.0400619507
 20
68.3184165955
  0
LWPOLYLINE
  5
61F
330
1FF
100
AcDbEntity
  8
0
  6
Continuous
 62
   142
100
AcDbPolyline
 90
        2
 70
     0
 43
0.4999999847
 10
7.9998168945
 20
65.748966217
 10
8.090217590299998
 20
65.7990760803
  0
LWPOLYLINE
  5
620
330
1FF
100
AcDbEntity
  8
0
  6
Continuous
 62
   142
100
AcDbPolyline
 90
        2
 70
     0
 43
0.4999999847
 10
35.093460083
 20
83.9068641663
 10
35.3483734131
 20
84.04741287230001
  0
LWPOLYLINE
  5
621
330
1FF
100
AcDbEntity
  8
0
  6
Continuous
 62
   142
100
AcDbPolyline
 90
        2
 70
     0
 43
0.3500000019
 10
6.149566650399999
 20
67.1346931458
 10
6.2409439087
 20
67.1840858459
  0
LWPOLYLINE
  5
622
330
1FF
100
AcDbEntity
  8
0
  6
Continuous
 62
   142
100
AcDbPolyline
 90
        2
 70
     0
 43
0.3500000019
 10
6.2409439087
 20
67.1840858459
 10
6.289703369099998
 20
67.2104377747
  0
LWPOLYLINE
  5
623
330
1FF
100
AcDbEntity
  8
0
  6
Continuous
 62
   142
100
AcDbPolyline
 90
        2
 70
     0
 43
0.3500000019
 10
1.610328674299998
 20
68.85625839229999
 10
1.3492431641
 20
68.72767257689999
  0
LWPOLYLINE
  5
624
330
1FF
100
AcDbEntity
  8
0
  6
Continuous
 62
   142
100
AcDbPolyline
 90
        2
 70
     0
 43
0.4999999847
 10
11.1652145386
 20
88.05716323850003
 10
9.208724975599999
 20
87.19305801389999
  0
LWPOLYLINE
  5
625
330
1FF
100
AcDbEntity
  8
0
  6
Continuous
 62
   142
100
AcDbPolyline
 90
        2
 70
     0
 43
0.4999999847
 10
11.7379302979
 20
88.31009292600002
 10
11.1652145386
 20
88.05716323850003
  0
LWPOLYLINE
  5
626
330
1FF
100
AcDbEntity
  8
0
  6
Continuous
 62
   142
100
AcDbPolyline
 90
        2
 70
     0
 43
0.4999999847
 10
9.379501342799999
 20
144.5736427307
 10
6.511146545399999
 20
143.8247108459
  0
LWPOLYLINE
  5
627
330
1FF
100
AcDbEntity
  8
0
  6
Continuous
 62
   142
100
AcDbPolyline
 90
        2
 70
     0
 43
0.4999999847
 10
41.989944458
 20
156.817111969
 10
38.8146972656
 20
156.0065345764
  0
LWPOLYLINE
  5
628
330
1FF
100
AcDbEntity
  8
0
  6
Continuous
 62
   142
100
AcDbPolyline
 90
        2
 70
     0
 43
0.4999999847
 10
42.78922271729999
 20
156.944355011
 10
41.989944458
 20
156.817111969
  0
LWPOLYLINE
  5
629
330
1FF
100
AcDbEntity
  8
0
  6
Continuous
 62
   142
100
AcDbPolyline
 90
        2
 70
     0
 43
0.4999999847
 10
23.244354248
 20
170.1323738098
 10
22.8679428101
 20
170.164768219
  0
LWPOLYLINE
  5
62A
330
1FF
100
AcDbEntity
  8
0
  6
Continuous
 62
   142
100
AcDbPolyline
 90
        2
 70
     0
 43
0.4999999847
 10
76.20858764649999
 20
5.302677154499999
 10
75.3899841309
 20
3.2673912048
  0
LWPOLYLINE
  5
62B
330
1FF
100
AcDbEntity
  8
0
  6
Continuous
 62
   142
100
AcDbPolyline
 90
        2
 70
     0
 43
0.4999999847
 10
70.2308044434
 20
69.0977745056
 10
70.57511901859999
 20
69.4047584534
  0
LWPOLYLINE
  5
62C
330
1FF
100
AcDbEntity
  8
0
  6
Continuous
 62
   142
100
AcDbPolyline
 90
        2
 70
     0
 43
0.4999999847
 10
36.4249572754
 20
40.68737411499999
 10
36.2487945557
 20
40.53531265260001
  0
LWPOLYLINE
  5
62D
330
1FF
100
AcDbEntity
  8
0
  6
Continuous
 62
   142
100
AcDbPolyline
 90
        2
 70
     0
 43
0.4999999847
 10
33.7719497681
 20
42.73285293579999
 10
33.9475708008
 20
42.88298416139999
  0
LWPOLYLINE
  5
62E
330
1FF
100
AcDbEntity
  8
0
  6
Continuous
 62
   142
100
AcDbPolyline
 90
        2
 70
     0
 43
0.4999999847
 10
28.3600845337
 20
47.5343894958
 10
28.5344848633
 20
47.68032455439999
  0
LWPOLYLINE
  5
62F
330
1FF
100
AcDbEntity
  8
0
  6
Continuous
 62
   142
100
AcDbPolyline
 90
        2
 70
     0
 43
0.4999999847
 10
48.45533752439999
 20
71.3023948669
 10
46.01757812499999
 20
69.48891067499999
  0
LWPOLYLINE
  5
630
330
1FF
100
AcDbEntity
  8
0
  6
Continuous
 62
   142
100
AcDbPolyline
 90
        2
 70
     0
 43
0.4999999847
 10
17.2114715576
 20
57.288105011
 10
16.9795150757
 20
57.13615036010001
  0
LWPOLYLINE
  5
631
330
1FF
100
AcDbEntity
  8
0
  6
Continuous
 62
   142
100
AcDbPolyline
 90
        2
 70
     0
 43
0.3500000019
 10
17.6238632202
 20
52.585308075
 10
17.6049804688
 20
52.5731773376
  0
LWPOLYLINE
  5
632
330
1FF
100
AcDbEntity
  8
0
  6
Continuous
 62
   142
100
AcDbPolyline
 90
        2
 70
     0
 43
0.3500000019
 10
3.1108093262
 20
67.51209640499999
 10
2.848030090299998
 20
67.3831138611
  0
LWPOLYLINE
  5
633
330
1FF
100
AcDbEntity
  8
0
  6
Continuous
 62
   142
100
AcDbPolyline
 90
        2
 70
     0
 43
0.4999999847
 10
17.63784027099999
 20
73.1718635559
 10
18.2116394043
 20
73.44187545779999
  0
LWPOLYLINE
  5
634
330
1FF
100
AcDbEntity
  8
0
  6
Continuous
 62
   142
100
AcDbPolyline
 90
        2
 70
     0
 43
0.4999999847
 10
18.2116394043
 20
73.44187545779999
 10
20.155960083
 20
74.3567848206
  0
LWPOLYLINE
  5
635
330
1FF
100
AcDbEntity
  8
0
  6
Continuous
 62
   142
100
AcDbPolyline
 90
        2
 70
     0
 43
0.3500000019
 10
3.302322387699998
 20
69.9003257751
 10
3.0535964966
 20
69.7868232727
  0
LWPOLYLINE
  5
636
330
1FF
100
AcDbEntity
  8
0
  6
Continuous
 62
   142
100
AcDbPolyline
 90
        2
 70
     0
 43
0.3500000019
 10
6.289703369099998
 20
67.2104377747
 10
6.424316406199999
 20
67.26897811890001
  0
LWPOLYLINE
  5
637
330
1FF
100
AcDbEntity
  8
0
  6
Continuous
 62
   142
100
AcDbPolyline
 90
        2
 70
     0
 43
0.3500000019
 10
3.3224487305
 20
67.59952163699999
 10
3.1108093262
 20
67.51209640499999
  0
LWPOLYLINE
  5
638
330
1FF
100
AcDbEntity
  8
0
  6
Continuous
 62
   142
100
AcDbPolyline
 90
        2
 70
     0
 43
0.3500000019
 10
1.821060180699999
 20
68.9430122375
 10
1.610328674299998
 20
68.85625839229999
  0
LWPOLYLINE
  5
639
330
1FF
100
AcDbEntity
  8
0
  6
Continuous
 62
   142
100
AcDbPolyline
 90
        2
 70
     0
 43
0.3500000019
 10
3.413383483899998
 20
69.94392776489998
 10
3.302322387699998
 20
69.9003257751
  0
LWPOLYLINE
  5
63A
330
1FF
100
AcDbEntity
  8
0
  6
Continuous
 62
   142
100
AcDbPolyline
 90
        2
 70
     0
 43
0.4999999847
 10
14.1335067749
 20
78.2330055237
 10
14.4918823242
 20
78.37193679810001
  0
LWPOLYLINE
  5
63B
330
1FF
100
AcDbEntity
  8
0
  6
Continuous
 62
   142
100
AcDbPolyline
 90
        2
 70
     0
 43
0.3500000019
 10
51.76818847659999
 20
90.1068000793
 10
50.1402053833
 20
89.512714386
  0
LWPOLYLINE
  5
63C
330
1FF
100
AcDbEntity
  8
0
  6
Continuous
 62
   142
100
AcDbPolyline
 90
        2
 70
     0
 43
0.4999999847
 10
0.5577545166000001
 20
72.4747200012
 10
5.904449462899999
 20
74.4175605774
  0
LWPOLYLINE
  5
63D
330
1FF
100
AcDbEntity
  8
0
  6
Continuous
 62
   142
100
AcDbPolyline
 90
        2
 70
     0
 43
0.4999999847
 10
14.4918823242
 20
78.37193679810001
 10
18.4480667114
 20
79.7777137756
  0
LWPOLYLINE
  5
63E
330
1FF
100
AcDbEntity
  8
0
  6
Continuous
 62
   142
100
AcDbPolyline
 90
        2
 70
     0
 43
0.4999999847
 10
3.259536743199998
 20
161.7514533997
 10
6.013778686499998
 20
162.1964302063
  0
LWPOLYLINE
  5
63F
330
1FF
100
AcDbEntity
  8
0
  6
Continuous
 62
   142
100
AcDbPolyline
 90
        2
 70
     0
 43
0.3500000019
 10
11.2900848389
 20
171.9349403381
 10
13.4691696167
 20
172.2496528625
  0
LWPOLYLINE
  5
640
330
1FF
100
AcDbEntity
  8
0
  6
Continuous
 62
   142
100
AcDbPolyline
 90
        2
 70
     0
 43
0.3500000019
 10
13.4691696167
 20
172.2496528625
 10
14.1073455811
 20
172.3418312073
  0
LWPOLYLINE
  5
641
330
1FF
100
AcDbEntity
  8
0
  6
Continuous
 62
   142
100
AcDbPolyline
 90
        2
 70
     0
 43
0.4999999847
 10
22.8679428101
 20
170.164768219
 10
22.2256393433
 20
170.0851783752
  0
LWPOLYLINE
  5
642
330
1FF
100
AcDbEntity
  8
0
  6
Continuous
 62
   142
100
AcDbPolyline
 90
        2
 70
     0
 43
0.4999999847
 10
3.1915588379
 20
178.9211616516
 10
3.0560684204
 20
178.9172096252
  0
LWPOLYLINE
  5
643
330
1FF
100
AcDbEntity
  8
0
  6
Continuous
 62
   142
100
AcDbPolyline
 90
        2
 70
     0
 43
0.4999999847
 10
76.27323913569998
 20
5.457324981699999
 10
76.22927856449999
 20
5.3854980469
  0
LWPOLYLINE
  5
644
330
1FF
100
AcDbEntity
  8
0
  6
Continuous
 62
   142
100
AcDbPolyline
 90
        2
 70
     0
 43
0.4999999847
 10
76.2892913818
 20
5.483551025399999
 10
76.27323913569998
 20
5.457324981699999
  0
LWPOLYLINE
  5
645
330
1FF
100
AcDbEntity
  8
0
  6
Continuous
 62
   142
100
AcDbPolyline
 90
        2
 70
     0
 43
0.4999999847
 10
63.702255249
 20
16.4587287903
 10
63.59092712399999
 20
16.3016319275
  0
LWPOLYLINE
  5
646
330
1FF
100
AcDbEntity
  8
0
  6
Continuous
 62
   142
100
AcDbPolyline
 90
        2
 70
     0
 43
0.3500000019
 10
66.2436828613
 20
11.1143836975
 10
66.4098358154
 20
11.3475227356
  0
LWPOLYLINE
  5
647
330
1FF
100
AcDbEntity
  8
0
  6
Continuous
 62
   142
100
AcDbPolyline
 90
        2
 70
     0
 43
0.3500000019
 10
66.4098358154
 20
11.3475227356
 10
66.4643859863
 20
11.4240531921
  0
LWPOLYLINE
  5
648
330
1FF
100
AcDbEntity
  8
0
  6
Continuous
 62
   142
100
AcDbPolyline
 90
        2
 70
     0
 43
0.4999999847
 10
47.5315933228
 20
29.7962150574
 10
47.38356018069999
 20
29.644908905
  0
LWPOLYLINE
  5
649
330
1FF
100
AcDbEntity
  8
0
  6
Continuous
 62
   142
100
AcDbPolyline
 90
        2
 70
     0
 43
0.4999999847
 10
44.7461395264
 20
32.9962272644
 10
44.92408752439999
 20
33.155040741
  0
LWPOLYLINE
  5
64A
330
1FF
100
AcDbEntity
  8
0
  6
Continuous
 62
   142
100
AcDbPolyline
 90
        2
 70
     0
 43
0.4999999847
 10
38.9233932495
 20
33.5029258728
 10
38.8385696411
 20
33.4327659607
  0
LWPOLYLINE
  5
64B
330
1FF
100
AcDbEntity
  8
0
  6
Continuous
 62
   142
100
AcDbPolyline
 90
        2
 70
     0
 43
0.4999999847
 10
51.9679870605
 20
52.3560142517
 10
52.4250869751
 20
52.7258033752
  0
LWPOLYLINE
  5
64C
330
1FF
100
AcDbEntity
  8
0
  6
Continuous
 62
   142
100
AcDbPolyline
 90
        2
 70
     0
 43
0.4999999847
 10
52.4250869751
 20
52.7258033752
 10
52.5775909424
 20
52.8491630554
  0
LWPOLYLINE
  5
64D
330
1FF
100
AcDbEntity
  8
0
  6
Continuous
 62
   142
100
AcDbPolyline
 90
        2
 70
     0
 43
0.4999999847
 10
69.6405029297
 20
68.62389755249999
 10
70.11628723140001
 20
69.00584793090001
  0
LWPOLYLINE
  5
64E
330
1FF
100
AcDbEntity
  8
0
  6
Continuous
 62
   142
100
AcDbPolyline
 90
        2
 70
     0
 43
0.4999999847
 10
70.43382263179998
 20
69.26074600220001
 10
70.2308044434
 20
69.0977745056
  0
LWPOLYLINE
  5
64F
330
1FF
100
AcDbEntity
  8
0
  6
Continuous
 62
   142
100
AcDbPolyline
 90
        2
 70
     0
 43
0.4999999847
 10
70.11628723140001
 20
69.00584793090001
 10
70.2308044434
 20
69.0977745056
  0
LWPOLYLINE
  5
650
330
1FF
100
AcDbEntity
  8
0
  6
Continuous
 62
   142
100
AcDbPolyline
 90
        2
 70
     0
 43
0.4999999847
 10
51.779838562
 20
52.2307472229
 10
51.4338912964
 20
51.96531295779998
  0
LWPOLYLINE
  5
651
330
1FF
100
AcDbEntity
  8
0
  6
Continuous
 62
   142
100
AcDbPolyline
 90
        2
 70
     0
 43
0.4999999847
 10
51.1103744507
 20
51.7849998474
 10
51.9679870605
 20
52.3560142517
  0
LWPOLYLINE
  5
652
330
1FF
100
AcDbEntity
  8
0
  6
Continuous
 62
   142
100
AcDbPolyline
 90
        2
 70
     0
 43
0.4999999847
 10
68.5350189209
 20
67.9235343933
 10
69.6405029297
 20
68.62389755249999
  0
LWPOLYLINE
  5
653
330
1FF
100
AcDbEntity
  8
0
  6
Continuous
 62
   142
100
AcDbPolyline
 90
        2
 70
     0
 43
0.4999999847
 10
30.9144744873
 20
45.4336051941
 10
31.0065689087
 20
45.4894447327
  0
LWPOLYLINE
  5
654
330
1FF
100
AcDbEntity
  8
0
  6
Continuous
 62
   142
100
AcDbPolyline
 90
        2
 70
     0
 43
0.4999999847
 10
21.1431274414
 20
54.0981712341
 10
21.2335739136
 20
54.1507606506
  0
LWPOLYLINE
  5
655
330
1FF
100
AcDbEntity
  8
0
  6
Continuous
 62
   142
100
AcDbPolyline
 90
        2
 70
     0
 43
0.3500000019
 10
17.7686004639
 20
52.6663398743
 10
17.6238632202
 20
52.585308075
  0
LWPOLYLINE
  5
656
330
1FF
100
AcDbEntity
  8
0
  6
Continuous
 62
   142
100
AcDbPolyline
 90
        2
 70
     0
 43
0.4999999847
 10
30.7624893188
 20
65.0238380432
 10
31.3778305054
 20
65.33491134640001
  0
LWPOLYLINE
  5
657
330
1FF
100
AcDbEntity
  8
0
  6
Continuous
 62
   142
100
AcDbPolyline
 90
        2
 70
     0
 43
0.3500000019
 10
14.6369552612
 20
59.60520553590001
 10
14.8855819702
 20
59.73012924189999
  0
LWPOLYLINE
  5
658
330
1FF
100
AcDbEntity
  8
0
  6
Continuous
 62
   142
100
AcDbPolyline
 90
        2
 70
     0
 43
0.3500000019
 10
17.83637237549999
 20
52.70000076289999
 10
17.7686004639
 20
52.6663398743
  0
LWPOLYLINE
  5
659
330
1FF
100
AcDbEntity
  8
0
  6
Continuous
 62
   142
100
AcDbPolyline
 90
        2
 70
     0
 43
0.3500000019
 10
17.91241455079999
 20
52.7377510071
 10
17.83637237549999
 20
52.70000076289999
  0
LWPOLYLINE
  5
65A
330
1FF
100
AcDbEntity
  8
0
  6
Continuous
 62
   142
100
AcDbPolyline
 90
        2
 70
     0
 43
0.3500000019
 10
11.6575775146
 20
62.5056190491
 10
11.5376281738
 20
62.4514350891
  0
LWPOLYLINE
  5
65B
330
1FF
100
AcDbEntity
  8
0
  6
Continuous
 62
   142
100
AcDbPolyline
 90
        2
 70
     0
 43
0.3500000019
 10
11.5376281738
 20
62.4514350891
 10
11.4052276611
 20
62.3916282654
  0
LWPOLYLINE
  5
65C
330
1FF
100
AcDbEntity
  8
0
  6
Continuous
 62
   142
100
AcDbPolyline
 90
        2
 70
     0
 43
0.4999999847
 10
16.8369674683
 20
53.8848686218
 10
16.8113250732
 20
53.87338638310001
  0
LWPOLYLINE
  5
65D
330
1FF
100
AcDbEntity
  8
0
  6
Continuous
 62
   142
100
AcDbPolyline
 90
        2
 70
     0
 43
0.3500000019
 10
14.8855819702
 20
59.73012924189999
 10
14.9216461182
 20
59.74471664430001
  0
LWPOLYLINE
  5
65E
330
1FF
100
AcDbEntity
  8
0
  6
Continuous
 62
   142
100
AcDbPolyline
 90
        2
 70
     0
 43
0.3500000019
 10
11.7599639893
 20
62.54675674439999
 10
11.6575775146
 20
62.5056190491
  0
LWPOLYLINE
  5
65F
330
1FF
100
AcDbEntity
  8
0
  6
Continuous
 62
   142
100
AcDbPolyline
 90
        2
 70
     0
 43
0.4999999847
 10
51.8991088867
 20
72.6804084778
 10
48.45533752439999
 20
71.3023948669
  0
LWPOLYLINE
  5
660
330
1FF
100
AcDbEntity
  8
0
  6
Continuous
 62
   142
100
AcDbPolyline
 90
        2
 70
     0
 43
0.4999999847
 10
28.0646286011
 20
63.96730422970001
 10
30.7624893188
 20
65.0238380432
  0
LWPOLYLINE
  5
661
330
1FF
100
AcDbEntity
  8
0
  6
Continuous
 62
   142
100
AcDbPolyline
 90
        2
 70
     0
 43
0.4999999847
 10
12.5741653442
 20
58.0633735657
 10
10.7861175537
 20
57.3635597229
  0
LWPOLYLINE
  5
662
330
1FF
100
AcDbEntity
  8
0
  6
Continuous
 62
   142
100
AcDbPolyline
 90
        2
 70
     0
 43
0.3500000019
 10
14.9216461182
 20
59.74471664430001
 10
20.4222869873
 20
61.8912696838
  0
LWPOLYLINE
  5
663
330
1FF
100
AcDbEntity
  8
0
  6
Continuous
 62
   142
100
AcDbPolyline
 90
        2
 70
     0
 43
0.4999999847
 10
19.0171508789
 20
63.10364913939999
 10
13.530921936
 20
60.97725296020001
  0
LWPOLYLINE
  5
664
330
1FF
100
AcDbEntity
  8
0
  6
Continuous
 62
   142
100
AcDbPolyline
 90
        2
 70
     0
 43
0.4999999847
 10
17.2772216797
 20
63.0502967834
 10
11.8234329224
 20
60.94158554079999
  0
LWPOLYLINE
  5
665
330
1FF
100
AcDbEntity
  8
0
  6
Continuous
 62
   142
100
AcDbPolyline
 90
        2
 70
     0
 43
0.4999999847
 10
8.218452453599999
 20
59.6926612854
 10
9.2345046997
 20
60.08532333369998
  0
LWPOLYLINE
  5
666
330
1FF
100
AcDbEntity
  8
0
  6
Continuous
 62
   142
100
AcDbPolyline
 90
        2
 70
     0
 43
0.3500000019
 10
17.2277145386
 20
64.64760971069999
 10
11.7599639893
 20
62.54675674439999
  0
LWPOLYLINE
  5
667
330
1FF
100
AcDbEntity
  8
0
  6
Continuous
 62
   142
100
AcDbPolyline
 90
        2
 70
     0
 43
0.4999999847
 10
5.205947876
 20
62.42530441279999
 10
5.8009109497
 20
62.65179824829999
  0
LWPOLYLINE
  5
668
330
1FF
100
AcDbEntity
  8
0
  6
Continuous
 62
   142
100
AcDbPolyline
 90
        2
 70
     0
 43
0.4999999847
 10
5.1649780273
 20
68.3915748596
 10
5.1593933105
 20
68.3894538879
  0
LWPOLYLINE
  5
669
330
1FF
100
AcDbEntity
  8
0
  6
Continuous
 62
   142
100
AcDbPolyline
 90
        2
 70
     0
 43
0.3500000019
 10
5.577255248999998
 20
64.50229263309999
 10
5.8636245728
 20
64.61048507689999
  0
LWPOLYLINE
  5
66A
330
1FF
100
AcDbEntity
  8
0
  6
Continuous
 62
   142
100
AcDbPolyline
 90
        2
 70
     0
 43
0.4999999847
 10
8.090217590299998
 20
65.7990760803
 10
13.5190811157
 20
67.847492218
  0
LWPOLYLINE
  5
66B
330
1FF
100
AcDbEntity
  8
0
  6
Continuous
 62
   142
100
AcDbPolyline
 90
        2
 70
     0
 43
0.4999999847
 10
4.463386535599998
 20
66.2329139709
 10
2.0182876587
 20
65.31682968140001
  0
LWPOLYLINE
  5
66C
330
1FF
100
AcDbEntity
  8
0
  6
Continuous
 62
   142
100
AcDbPolyline
 90
        2
 70
     0
 43
0.3500000019
 10
6.424316406199999
 20
67.26897811890001
 10
11.8404998779
 20
69.2958106995
  0
LWPOLYLINE
  5
66D
330
1FF
100
AcDbEntity
  8
0
  6
Continuous
 62
   142
100
AcDbPolyline
 90
        2
 70
     0
 43
0.3500000019
 10
5.459686279299999
 20
64.458316803
 10
5.577255248999998
 20
64.50229263309999
  0
LWPOLYLINE
  5
66E
330
1FF
100
AcDbEntity
  8
0
  6
Continuous
 62
   142
100
AcDbPolyline
 90
        2
 70
     0
 43
0.4999999847
 10
4.6222915649
 20
66.93964767459999
 10
3.381103515599998
 20
66.4758110046
  0
LWPOLYLINE
  5
66F
330
1FF
100
AcDbEntity
  8
0
  6
Continuous
 62
   142
100
AcDbPolyline
 90
        2
 70
     0
 43
0.4999999847
 10
10.5623245239
 20
70.3986549377
 10
5.1649780273
 20
68.3915748596
  0
LWPOLYLINE
  5
670
330
1FF
100
AcDbEntity
  8
0
  6
Continuous
 62
   142
100
AcDbPolyline
 90
        2
 70
     0
 43
0.3500000019
 10
4.939971923799999
 20
68.20126724239999
 10
3.3224487305
 20
67.59952163699999
  0
LWPOLYLINE
  5
671
330
1FF
100
AcDbEntity
  8
0
  6
Continuous
 62
   142
100
AcDbPolyline
 90
        2
 70
     0
 43
0.4999999847
 10
5.2004089355
 20
62.4232444763
 10
5.205947876
 20
62.42530441279999
  0
LWPOLYLINE
  5
672
330
1FF
100
AcDbEntity
  8
0
  6
Continuous
 62
   142
100
AcDbPolyline
 90
        2
 70
     0
 43
0.4999999847
 10
8.84765625
 20
70.6381950378
 10
3.480522155799998
 20
68.6493339539
  0
LWPOLYLINE
  5
673
330
1FF
100
AcDbEntity
  8
0
  6
Continuous
 62
   142
100
AcDbPolyline
 90
        2
 70
     0
 43
0.3500000019
 10
2.5126953125
 20
69.19838333130001
 10
1.821060180699999
 20
68.9430122375
  0
LWPOLYLINE
  5
674
330
1FF
100
AcDbEntity
  8
0
  6
Continuous
 62
   142
100
AcDbPolyline
 90
        2
 70
     0
 43
0.3500000019
 10
8.7916030884
 20
71.9264564514
 10
3.413383483899998
 20
69.94392776489998
  0
LWPOLYLINE
  5
675
330
1FF
100
AcDbEntity
  8
0
  6
Continuous
 62
   142
100
AcDbPolyline
 90
        2
 70
     0
 43
0.3500000019
 10
5.376945495599999
 20
64.4278907776
 10
5.459686279299999
 20
64.458316803
  0
LWPOLYLINE
  5
676
330
1FF
100
AcDbEntity
  8
0
  6
Continuous
 62
   142
100
AcDbPolyline
 90
        2
 70
     0
 43
0.3500000019
 10
5.325050354
 20
64.40880966189999
 10
5.376945495599999
 20
64.4278907776
  0
LWPOLYLINE
  5
677
330
1FF
100
AcDbEntity
  8
0
  6
Continuous
 62
   142
100
AcDbPolyline
 90
        2
 70
     0
 43
0.3500000019
 10
5.1767578125
 20
64.35514450069999
 10
5.325050354
 20
64.40880966189999
  0
LWPOLYLINE
  5
678
330
1FF
100
AcDbEntity
  8
0
  6
Continuous
 62
   142
100
AcDbPolyline
 90
        2
 70
     0
 43
0.3500000019
 10
5.038681030299999
 20
64.3059272766
 10
5.1767578125
 20
64.35514450069999
  0
LWPOLYLINE
  5
67A
330
1FF
100
AcDbEntity
  8
0
  6
Continuous
 62
   142
100
AcDbPolyline
 90
        2
 70
     0
 43
0.3500000019
 10
6.037284851099999
 20
167.2190589905
 10
6.4953994751
 20
167.337223053
  0
LWPOLYLINE
  5
67B
330
1FF
100
AcDbEntity
  8
0
  6
Continuous
 62
   142
100
AcDbPolyline
 90
        2
 70
     0
 43
0.4999999847
 10
6.037284851099999
 20
167.2190589905
 10
5.763099670399999
 20
167.148349762
  0
LWPOLYLINE
  5
67C
330
1FF
100
AcDbEntity
  8
0
  6
Continuous
 62
   142
100
AcDbPolyline
 90
        2
 70
     0
 43
0.4999999847
 10
12.7235412598
 20
168.7766914368
 10
6.485488891599998
 20
167.3492469788
  0
LWPOLYLINE
  5
67D
330
1FF
100
AcDbEntity
  8
0
  6
Continuous
 62
   142
100
AcDbPolyline
 90
        2
 70
     0
 43
0.4999999847
 10
22.2256393433
 20
170.0851783752
 10
19.1408691406
 20
169.3831825256
  0
LWPOLYLINE
  5
67E
330
1FF
100
AcDbEntity
  8
0
  6
Continuous
 62
   142
100
AcDbPolyline
 90
        2
 70
     0
 43
0.4999999847
 10
69.72689819340001
 20
11.2091407776
 10
69.81353759770001
 20
11.312297821
  0
LWPOLYLINE
  5
67F
330
1FF
100
AcDbEntity
  8
0
  6
Continuous
 62
   142
100
AcDbPolyline
 90
        2
 70
     0
 43
0.4999999847
 10
58.2067260742
 20
21.3832969666
 10
58.0263442993
 20
21.2136726379
  0
LWPOLYLINE
  5
680
330
1FF
100
AcDbEntity
  8
0
  6
Continuous
 62
   142
100
AcDbPolyline
 90
        2
 70
     0
 43
0.4999999847
 10
47.1639328003
 20
26.5429725647
 10
47.0620727539
 20
26.4523658752
  0
LWPOLYLINE
  5
681
330
1FF
100
AcDbEntity
  8
0
  6
Continuous
 62
   142
100
AcDbPolyline
 90
        2
 70
     0
 43
0.4999999847
 10
49.9789886475
 20
23.0432701111
 10
49.9185562134
 20
22.9923744202
  0
LWPOLYLINE
  5
682
330
1FF
100
AcDbEntity
  8
0
  6
Continuous
 62
   142
100
AcDbPolyline
 90
        2
 70
     0
 43
0.4999999847
 10
44.43834686279998
 20
28.3108482361
 10
44.5348892212
 20
28.391292572
  0
LWPOLYLINE
  5
683
330
1FF
100
AcDbEntity
  8
0
  6
Continuous
 62
   142
100
AcDbPolyline
 90
        2
 70
     0
 43
0.4999999847
 10
47.83634948729999
 20
30.0050315857
 10
47.8210220337
 20
29.9938545227
  0
LWPOLYLINE
  5
684
330
1FF
100
AcDbEntity
  8
0
  6
Continuous
 62
   142
100
AcDbPolyline
 90
        2
 70
     0
 43
0.4999999847
 10
54.8183517456
 20
38.7790184021
 10
54.2166137695
 20
38.3685188293
  0
LWPOLYLINE
  5
685
330
1FF
100
AcDbEntity
  8
0
  6
Continuous
 62
   142
100
AcDbPolyline
 90
        2
 70
     0
 43
0.4999999847
 10
54.2166137695
 20
38.3685188293
 10
53.7909011841
 20
38.0781059265
  0
LWPOLYLINE
  5
686
330
1FF
100
AcDbEntity
  8
0
  6
Continuous
 62
   142
100
AcDbPolyline
 90
        2
 70
     0
 43
0.4999999847
 10
38.9324569702
 20
33.5287055969
 10
38.7318267822
 20
33.4025382996
  0
LWPOLYLINE
  5
687
330
1FF
100
AcDbEntity
  8
0
  6
Continuous
 62
   142
100
AcDbPolyline
 90
        2
 70
     0
 43
0.4999999847
 10
41.58501434329999
 20
35.9852104187
 10
41.67094421389999
 20
36.0381278992
  0
LWPOLYLINE
  5
688
330
1FF
100
AcDbEntity
  8
0
  6
Continuous
 62
   142
100
AcDbPolyline
 90
        2
 70
     0
 43
0.4999999847
 10
51.4338912964
 20
51.96531295779998
 10
51.1103744507
 20
51.7849998474
  0
LWPOLYLINE
  5
689
330
1FF
100
AcDbEntity
  8
0
  6
Continuous
 62
   142
100
AcDbPolyline
 90
        2
 70
     0
 43
0.4999999847
 10
68.2060546875
 20
67.74616622919999
 10
68.5350189209
 20
67.9235343933
  0
LWPOLYLINE
  5
68A
330
1FF
100
AcDbEntity
  8
0
  6
Continuous
 62
   142
100
AcDbPolyline
 90
        2
 70
     0
 43
0.3500000019
 10
29.7547912598
 20
46.4073448181
 10
29.4772262573
 20
46.28099441529998
  0
LWPOLYLINE
  5
68B
330
1FF
100
AcDbEntity
  8
0
  6
Continuous
 62
   142
100
AcDbPolyline
 90
        2
 70
     0
 43
0.3500000019
 10
22.4328308105
 20
52.9545860291
 10
22.3057098389
 20
52.89731979369999
  0
LWPOLYLINE
  5
68C
330
1FF
100
AcDbEntity
  8
0
  6
Continuous
 62
   142
100
AcDbPolyline
 90
        2
 70
     0
 43
0.3500000019
 10
22.3057098389
 20
52.89731979369999
 10
22.1719894409
 20
52.83708572390001
  0
LWPOLYLINE
  5
68D
330
1FF
100
AcDbEntity
  8
0
  6
Continuous
 62
   142
100
AcDbPolyline
 90
        2
 70
     0
 43
0.3500000019
 10
22.4864654541
 20
50.6613578796
 10
22.2265548706
 20
50.54429245
  0
LWPOLYLINE
  5
68E
330
1FF
100
AcDbEntity
  8
0
  6
Continuous
 62
   142
100
AcDbPolyline
 90
        2
 70
     0
 43
0.3500000019
 10
25.3023834229
 20
50.4101753235
 10
25.0390396118
 20
50.2915687561
  0
LWPOLYLINE
  5
68F
330
1FF
100
AcDbEntity
  8
0
  6
Continuous
 62
   142
100
AcDbPolyline
 90
        2
 70
     0
 43
0.3500000019
 10
18.0462799072
 20
52.79612350459998
 10
17.91241455079999
 20
52.7377510071
  0
LWPOLYLINE
  5
690
330
1FF
100
AcDbEntity
  8
0
  6
Continuous
 62
   142
100
AcDbPolyline
 90
        2
 70
     0
 43
0.3500000019
 10
25.4053573608
 20
50.45352554319999
 10
25.3023834229
 20
50.4101753235
  0
LWPOLYLINE
  5
691
330
1FF
100
AcDbEntity
  8
0
  6
Continuous
 62
   142
100
AcDbPolyline
 90
        2
 70
     0
 43
0.3500000019
 10
22.5884017944
 20
50.704120636
 10
22.4864654541
 20
50.6613578796
  0
LWPOLYLINE
  5
692
330
1FF
100
AcDbEntity
  8
0
  6
Continuous
 62
   142
100
AcDbPolyline
 90
        2
 70
     0
 43
0.3500000019
 10
22.5351486206
 20
52.9972419739
 10
22.4328308105
 20
52.9545860291
  0
LWPOLYLINE
  5
693
330
1FF
100
AcDbEntity
  8
0
  6
Continuous
 62
   142
100
AcDbPolyline
 90
        2
 70
     0
 43
0.4999999847
 10
23.8542861938
 20
47.0559425354
 10
22.6843795776
 20
46.5706748962
  0
LWPOLYLINE
  5
694
330
1FF
100
AcDbEntity
  8
0
  6
Continuous
 62
   142
100
AcDbPolyline
 90
        2
 70
     0
 43
0.4999999847
 10
65.2182769775
 20
66.51805496219999
 10
68.2060546875
 20
67.74616622919999
  0
LWPOLYLINE
  5
695
330
1FF
100
AcDbEntity
  8
0
  6
Continuous
 62
   142
100
AcDbPolyline
 90
        2
 70
     0
 43
0.3500000019
 10
31.0109710693
 20
52.7551383972
 10
25.4053573608
 20
50.45352554319999
  0
LWPOLYLINE
  5
696
330
1FF
100
AcDbEntity
  8
0
  6
Continuous
 62
   142
100
AcDbPolyline
 90
        2
 70
     0
 43
0.4999999847
 10
20.1638641357
 20
49.4063835144
 10
21.0536651611
 20
49.7703285217
  0
LWPOLYLINE
  5
697
330
1FF
100
AcDbEntity
  8
0
  6
Continuous
 62
   142
100
AcDbPolyline
 90
        2
 70
     0
 43
0.3500000019
 10
23.7700271606
 20
51.1867866516
 10
22.5884017944
 20
50.704120636
  0
LWPOLYLINE
  5
698
330
1FF
100
AcDbEntity
  8
0
  6
Continuous
 62
   142
100
AcDbPolyline
 90
        2
 70
     0
 43
0.4999999847
 10
24.0459442139
 20
51.6582984924
 10
29.6383285522
 20
53.9394950867
  0
LWPOLYLINE
  5
699
330
1FF
100
AcDbEntity
  8
0
  6
Continuous
 62
   142
100
AcDbPolyline
 90
        2
 70
     0
 43
0.3500000019
 10
28.1126556396
 20
55.25587844850001
 10
22.5351486206
 20
52.9972419739
  0
LWPOLYLINE
  5
69A
330
1FF
100
AcDbEntity
  8
0
  6
Continuous
 62
   142
100
AcDbPolyline
 90
        2
 70
     0
 43
0.4999999847
 10
20.4236068726
 20
53.2739143372
 10
20.9583435059
 20
53.48954391479999
  0
LWPOLYLINE
  5
69B
330
1FF
100
AcDbEntity
  8
0
  6
Continuous
 62
   142
100
AcDbPolyline
 90
        2
 70
     0
 43
0.3500000019
 10
18.1823959351
 20
52.8509178162
 10
18.0462799072
 20
52.79612350459998
  0
LWPOLYLINE
  5
69C
330
1FF
100
AcDbEntity
  8
0
  6
Continuous
 62
   142
100
AcDbPolyline
 90
        2
 70
     0
 43
0.4999999847
 10
16.626449585
 20
52.0657997131
 10
16.8513031006
 20
52.1563529968
  0
LWPOLYLINE
  5
69D
330
1FF
100
AcDbEntity
  8
0
  6
Continuous
 62
   142
100
AcDbPolyline
 90
        2
 70
     0
 43
0.4999999847
 10
21.2335739136
 20
54.1507606506
 10
26.7981796265
 20
56.3900337219
  0
LWPOLYLINE
  5
69E
330
1FF
100
AcDbEntity
  8
0
  6
Continuous
 62
   142
100
AcDbPolyline
 90
        2
 70
     0
 43
0.4999999847
 10
17.2869033813
 20
54.0649147034
 10
16.8369674683
 20
53.8848686218
  0
LWPOLYLINE
  5
69F
330
1FF
100
AcDbEntity
  8
0
  6
Continuous
 62
   142
100
AcDbPolyline
 90
        2
 70
     0
 43
0.4999999847
 10
13.4898376465
 20
54.91100692749999
 10
14.0625
 20
55.1381340027
  0
LWPOLYLINE
  5
6A0
330
1FF
100
AcDbEntity
  8
0
  6
Continuous
 62
   142
100
AcDbPolyline
 90
        2
 70
     0
 43
0.4999999847
 10
22.7767105103
 20
59.4904823303
 10
17.2114715576
 20
57.288105011
  0
LWPOLYLINE
  5
6A1
330
1FF
100
AcDbEntity
  8
0
  6
Continuous
 62
   142
100
AcDbPolyline
 90
        2
 70
     0
 43
0.3500000019
 10
13.8834838867
 20
57.038143158
 10
14.2597351074
 20
57.1862602234
  0
LWPOLYLINE
  5
6A2
330
1FF
100
AcDbEntity
  8
0
  6
Continuous
 62
   142
100
AcDbPolyline
 90
        2
 70
     0
 43
0.3500000019
 10
13.6980209351
 20
56.9695472717
 10
13.8834838867
 20
57.038143158
  0
LWPOLYLINE
  5
6A3
330
1FF
100
AcDbEntity
  8
0
  6
Continuous
 62
   142
100
AcDbPolyline
 90
        2
 70
     0
 43
0.3500000019
 10
13.4050598145
 20
56.8736915588
 10
13.6980209351
 20
56.9695472717
  0
LWPOLYLINE
  5
6A4
330
1FF
100
AcDbEntity
  8
0
  6
Continuous
 62
   142
100
AcDbPolyline
 90
        2
 70
     0
 43
0.4999999847
 10
8.167366027799998
 20
59.67792129520001
 10
8.218452453599999
 20
59.6926612854
  0
LWPOLYLINE
  5
6A5
330
1FF
100
AcDbEntity
  8
0
  6
Continuous
 62
   142
100
AcDbPolyline
 90
        2
 70
     0
 43
0.4999999847
 10
3.0560684204
 20
178.9172096252
 10
2.9391937256
 20
178.8857307434
  0
LWPOLYLINE
  5
6A6
330
1FF
100
AcDbEntity
  8
0
  6
Continuous
 62
   142
100
AcDbPolyline
 90
        2
 70
     0
 43
0.4999999847
 10
47.8210220337
 20
29.9938545227
 10
47.5315933228
 20
29.7962150574
  0
LWPOLYLINE
  5
6A7
330
1FF
100
AcDbEntity
  8
0
  6
Continuous
 62
   142
100
AcDbPolyline
 90
        2
 70
     0
 43
0.4999999847
 10
52.3155441284
 20
26.4566001892
 10
52.4108428955
 20
26.5198783875
  0
LWPOLYLINE
  5
6A8
330
1FF
100
AcDbEntity
  8
0
  6
Continuous
 62
   142
100
AcDbPolyline
 90
        2
 70
     0
 43
0.4999999847
 10
57.34781646729999
 20
40.16044998169999
 10
54.8183517456
 20
38.7790184021
  0
LWPOLYLINE
  5
6A9
330
1FF
100
AcDbEntity
  8
0
  6
Continuous
 62
   142
100
AcDbPolyline
 90
        2
 70
     0
 43
0.4999999847
 10
60.5456848145
 20
41.7814903259
 10
59.69235229489999
 20
41.34890365599999
  0
LWPOLYLINE
  5
6AA
330
1FF
100
AcDbEntity
  8
0
  6
Continuous
 62
   142
100
AcDbPolyline
 90
        2
 70
     0
 43
0.4999999847
 10
57.8196716309
 20
40.3996391296
 10
57.34781646729999
 20
40.16044998169999
  0
LWPOLYLINE
  5
6AB
330
1FF
100
AcDbEntity
  8
0
  6
Continuous
 62
   142
100
AcDbPolyline
 90
        2
 70
     0
 43
0.4999999847
 10
59.69235229489999
 20
41.34890365599999
 10
57.8196716309
 20
40.3996391296
  0
LWPOLYLINE
  5
6AC
330
1FF
100
AcDbEntity
  8
0
  6
Continuous
 62
   142
100
AcDbPolyline
 90
        2
 70
     0
 43
0.3500000019
 10
35.20436859130001
 20
41.45755386349999
 10
34.8967208862
 20
41.31624984739999
  0
LWPOLYLINE
  5
6AD
330
1FF
100
AcDbEntity
  8
0
  6
Continuous
 62
   142
100
AcDbPolyline
 90
        2
 70
     0
 43
0.3500000019
 10
35.2076416016
 20
41.45905685419999
 10
35.20436859130001
 20
41.45755386349999
  0
LWPOLYLINE
  5
6AE
330
1FF
100
AcDbEntity
  8
0
  6
Continuous
 62
   142
100
AcDbPolyline
 90
        2
 70
     0
 43
0.3500000019
 10
35.43908691409999
 20
41.5611152649
 10
35.2076416016
 20
41.45905685419999
  0
LWPOLYLINE
  5
6AF
330
1FF
100
AcDbEntity
  8
0
  6
Continuous
 62
   142
100
AcDbPolyline
 90
        2
 70
     0
 43
0.4999999847
 10
32.9784622192
 20
38.1180076599
 10
32.31869506840001
 20
37.8314247131
  0
LWPOLYLINE
  5
6B0
330
1FF
100
AcDbEntity
  8
0
  6
Continuous
 62
   142
100
AcDbPolyline
 90
        2
 70
     0
 43
0.4999999847
 10
42.1342544556
 20
43.1577415466
 10
36.4249572754
 20
40.68737411499999
  0
LWPOLYLINE
  5
6B1
330
1FF
100
AcDbEntity
  8
0
  6
Continuous
 62
   142
100
AcDbPolyline
 90
        2
 70
     0
 43
0.3500000019
 10
41.1393890381
 20
44.01613235470001
 10
35.43908691409999
 20
41.5611152649
  0
LWPOLYLINE
  5
6B2
330
1FF
100
AcDbEntity
  8
0
  6
Continuous
 62
   142
100
AcDbPolyline
 90
        2
 70
     0
 43
0.3500000019
 10
29.9002075195
 20
46.4699440002
 10
29.7547912598
 20
46.4073448181
  0
LWPOLYLINE
  5
6B3
330
1FF
100
AcDbEntity
  8
0
  6
Continuous
 62
   142
100
AcDbPolyline
 90
        2
 70
     0
 43
0.4999999847
 10
30.7779769897
 20
40.2996788025
 10
29.9769363403
 20
39.9556312561
  0
LWPOLYLINE
  5
6B4
330
1FF
100
AcDbEntity
  8
0
  6
Continuous
 62
   142
100
AcDbPolyline
 90
        2
 70
     0
 43
0.4999999847
 10
33.9475708008
 20
42.88298416139999
 10
39.6341705322
 20
45.31488418579999
  0
LWPOLYLINE
  5
6B5
330
1FF
100
AcDbEntity
  8
0
  6
Continuous
 62
   142
100
AcDbPolyline
 90
        2
 70
     0
 43
0.4999999847
 10
48.30966186520001
 20
50.5941963196
 10
51.1103744507
 20
51.7849998474
  0
LWPOLYLINE
  5
6B6
330
1FF
100
AcDbEntity
  8
0
  6
Continuous
 62
   142
100
AcDbPolyline
 90
        2
 70
     0
 43
0.4999999847
 10
31.0065689087
 20
45.4894447327
 10
36.6657485962
 20
47.8760795593
  0
LWPOLYLINE
  5
6B7
330
1FF
100
AcDbEntity
  8
0
  6
Continuous
 62
   142
100
AcDbPolyline
 90
        2
 70
     0
 43
0.4999999847
 10
28.2901153564
 20
45.1543693542
 10
25.52674102780001
 20
43.9923820496
  0
LWPOLYLINE
  5
6B8
330
1FF
100
AcDbEntity
  8
0
  6
Continuous
 62
   142
100
AcDbPolyline
 90
        2
 70
     0
 43
0.3500000019
 10
35.5489578247
 20
48.83967208859999
 10
29.9002075195
 20
46.4699440002
  0
LWPOLYLINE
  5
6B9
330
1FF
100
AcDbEntity
  8
0
  6
Continuous
 62
   142
100
AcDbPolyline
 90
        2
 70
     0
 43
0.4999999847
 10
28.5344848633
 20
47.68032455439999
 10
34.17025756840001
 20
50.02923965449999
  0
LWPOLYLINE
  5
6BA
330
1FF
100
AcDbEntity
  8
0
  6
Continuous
 62
   142
100
AcDbPolyline
 90
        2
 70
     0
 43
0.4999999847
 10
20.3728027344
 20
53.25838851930001
 10
20.4236068726
 20
53.2739143372
  0
LWPOLYLINE
  5
6BB
330
1FF
100
AcDbEntity
  8
0
  6
Continuous
 62
   142
100
AcDbPolyline
 90
        2
 70
     0
 43
0.3500000019
 10
73.40507507319998
 20
3.6871681213
 10
73.4046783447
 20
3.686771392799998
  0
LWPOLYLINE
  5
6BC
330
1FF
100
AcDbEntity
  8
0
  6
Continuous
 62
   142
100
AcDbPolyline
 90
        2
 70
     0
 43
0.4999999847
 10
73.746887207
 20
7.8529510498
 10
73.6553344727
 20
7.761463165299998
  0
LWPOLYLINE
  5
6BD
330
1FF
100
AcDbEntity
  8
0
  6
Continuous
 62
   142
100
AcDbPolyline
 90
        2
 70
     0
 43
0.4999999847
 10
67.9700012207
 20
12.7305717468
 10
67.5072784424
 20
12.3224220276
  0
LWPOLYLINE
  5
6BE
330
1FF
100
AcDbEntity
  8
0
  6
Continuous
 62
   142
100
AcDbPolyline
 90
        2
 70
     0
 43
0.4999999847
 10
67.77549743649998
 20
12.5534629822
 10
66.4643859863
 20
11.4240531921
  0
LWPOLYLINE
  5
6BF
330
1FF
100
AcDbEntity
  8
0
  6
Continuous
 62
   142
100
AcDbPolyline
 90
        2
 70
     0
 43
0.3500000019
 10
68.9530944824
 20
28.9014015198
 10
68.9552612305
 20
28.9027442932
  0
LWPOLYLINE
  5
6C0
330
1FF
100
AcDbEntity
  8
0
  6
Continuous
 62
   142
100
AcDbPolyline
 90
        2
 70
     0
 43
0.4999999847
 10
69.3806152344
 20
29.1068763733
 10
69.38529968260001
 20
29.1097755432
  0
LWPOLYLINE
  5
6C1
330
1FF
100
AcDbEntity
  8
0
  6
Continuous
 62
   142
100
AcDbPolyline
 90
        2
 70
     0
 43
0.3500000019
 10
68.9552612305
 20
28.9027442932
 10
68.95890808109999
 20
28.9049797058
  0
LWPOLYLINE
  5
6C2
330
1FF
100
AcDbEntity
  8
0
  6
Continuous
 62
   142
100
AcDbPolyline
 90
        2
 70
     0
 43
0.4999999847
 10
69.3769226074
 20
29.1046180725
 10
69.3806152344
 20
29.1068763733
  0
LWPOLYLINE
  5
6C3
330
1FF
100
AcDbEntity
  8
0
  6
Continuous
 62
   142
100
AcDbPolyline
 90
        2
 70
     0
 43
0.4999999847
 10
47.1908950806
 20
26.5569801331
 10
47.1639328003
 20
26.5429725647
  0
LWPOLYLINE
  5
6C4
330
1FF
100
AcDbEntity
  8
0
  6
Continuous
 62
   142
100
AcDbPolyline
 90
        2
 70
     0
 43
0.3500000019
 10
48.2035064697
 20
24.9616737366
 10
48.2112045288
 20
24.9655570984
  0
LWPOLYLINE
  5
6C5
330
1FF
100
AcDbEntity
  8
0
  6
Continuous
 62
   142
100
AcDbPolyline
 90
        2
 70
     0
 43
0.4999999847
 10
48.2112045288
 20
24.9655570984
 10
48.2647171021
 20
24.9924659729
  0
LWPOLYLINE
  5
6C6
330
1FF
100
AcDbEntity
  8
0
  6
Continuous
 62
   142
100
AcDbPolyline
 90
        2
 70
     0
 43
0.4999999847
 10
44.5203933716
 20
28.4187202454
 10
44.5443572998
 20
28.430606842
  0
LWPOLYLINE
  5
6C7
330
1FF
100
AcDbEntity
  8
0
  6
Continuous
 62
   142
100
AcDbPolyline
 90
        2
 70
     0
 43
0.4999999847
 10
64.01452636720001
 20
43.4561805725
 10
61.5014953613
 20
42.24291610719999
  0
LWPOLYLINE
  5
6C8
330
1FF
100
AcDbEntity
  8
0
  6
Continuous
 62
   142
100
AcDbPolyline
 90
        2
 70
     0
 43
0.4999999847
 10
61.5014953613
 20
42.24291610719999
 10
60.5456848145
 20
41.7814903259
  0
LWPOLYLINE
  5
6C9
330
1FF
100
AcDbEntity
  8
0
  6
Continuous
 62
   142
100
AcDbPolyline
 90
        2
 70
     0
 43
0.4999999847
 10
48.42977142329999
 20
25.0710258484
 10
48.2112045288
 20
24.9655570984
  0
LWPOLYLINE
  5
6CA
330
1FF
100
AcDbEntity
  8
0
  6
Continuous
 62
   142
100
AcDbPolyline
 90
        2
 70
     0
 43
0.4999999847
 10
48.2647171021
 20
24.9924659729
 10
48.42958831789999
 20
25.0714073181
  0
LWPOLYLINE
  5
6CB
330
1FF
100
AcDbEntity
  8
0
  6
Continuous
 62
   142
100
AcDbPolyline
 90
        2
 70
     0
 43
0.3500000019
 10
48.4860610962
 20
25.0980110168
 10
48.47080993649999
 20
25.0908241272
  0
LWPOLYLINE
  5
6CC
330
1FF
100
AcDbEntity
  8
0
  6
Continuous
 62
   142
100
AcDbPolyline
 90
        2
 70
     0
 43
0.3500000019
 10
48.56224823
 20
25.1339073181
 10
48.4860610962
 20
25.0980110168
  0
LWPOLYLINE
  5
6CD
330
1FF
100
AcDbEntity
  8
0
  6
Continuous
 62
   142
100
AcDbPolyline
 90
        2
 70
     0
 43
0.4999999847
 10
48.42958831789999
 20
25.0714073181
 10
48.47080993649999
 20
25.0908241272
  0
LWPOLYLINE
  5
6CE
330
1FF
100
AcDbEntity
  8
0
  6
Continuous
 62
   142
100
AcDbPolyline
 90
        2
 70
     0
 43
0.4999999847
 10
47.5434799194
 20
27.1648674011
 10
45.9206085205
 20
26.4037742615
  0
LWPOLYLINE
  5
6CF
330
1FF
100
AcDbEntity
  8
0
  6
Continuous
 62
   142
100
AcDbPolyline
 90
        2
 70
     0
 43
0.4999999847
 10
47.7424163818
 20
26.8119239807
 10
47.1908950806
 20
26.5569801331
  0
LWPOLYLINE
  5
6D0
330
1FF
100
AcDbEntity
  8
0
  6
Continuous
 62
   142
100
AcDbPolyline
 90
        2
 70
     0
 43
0.4999999847
 10
64.7329864502
 20
43.78693008419999
 10
64.01452636720001
 20
43.4561805725
  0
LWPOLYLINE
  5
6D1
330
1FF
100
AcDbEntity
  8
0
  6
Continuous
 62
   142
100
AcDbPolyline
 90
        2
 70
     0
 43
0.4999999847
 10
67.1734771729
 20
44.9104042053
 10
64.7329864502
 20
43.78693008419999
  0
LWPOLYLINE
  5
6D2
330
1FF
100
AcDbEntity
  8
0
  6
Continuous
 62
   142
100
AcDbPolyline
 90
        2
 70
     0
 43
0.4999999847
 10
47.5501708984
 20
27.1519432068
 10
46.020614624
 20
26.4506645203
  0
LWPOLYLINE
  5
6D3
330
1FF
100
AcDbEntity
  8
0
  6
Continuous
 62
   142
100
AcDbPolyline
 90
        2
 70
     0
 43
0.4999999847
 10
53.6234512329
 20
32.6510047913
 10
47.83634948729999
 20
30.0050315857
  0
LWPOLYLINE
  5
6D4
330
1FF
100
AcDbEntity
  8
0
  6
Continuous
 62
   142
100
AcDbPolyline
 90
        2
 70
     0
 43
0.3500000019
 10
52.2650909424
 20
34.41664505
 10
46.46730041499998
 20
31.7873649597
  0
LWPOLYLINE
  5
6D5
330
1FF
100
AcDbEntity
  8
0
  6
Continuous
 62
   142
100
AcDbPolyline
 90
        2
 70
     0
 43
0.3500000019
 10
46.46730041499998
 20
31.7873649597
 10
46.2296218872
 20
31.6800575256
  0
LWPOLYLINE
  5
6D6
330
1FF
100
AcDbEntity
  8
0
  6
Continuous
 62
   142
100
AcDbPolyline
 90
        2
 70
     0
 43
0.4999999847
 10
44.92408752439999
 20
33.155040741
 10
50.7086486816
 20
35.7595787048
  0
LWPOLYLINE
  5
6D7
330
1FF
100
AcDbEntity
  8
0
  6
Continuous
 62
   142
100
AcDbPolyline
 90
        2
 70
     0
 43
0.4999999847
 10
40.25001525879999
 20
31.56116867070001
 10
41.3712768555
 20
32.0654182434
  0
LWPOLYLINE
  5
6D8
330
1FF
100
AcDbEntity
  8
0
  6
Continuous
 62
   142
100
AcDbPolyline
 90
        2
 70
     0
 43
0.4999999847
 10
42.9660720825
 20
34.6003913879
 10
43.08603668209999
 20
34.6543235779
  0
LWPOLYLINE
  5
6D9
330
1FF
100
AcDbEntity
  8
0
  6
Continuous
 62
   142
100
AcDbPolyline
 90
        2
 70
     0
 43
0.3500000019
 10
42.8112335205
 20
34.530796051
 10
42.9660720825
 20
34.6003913879
  0
LWPOLYLINE
  5
6DA
330
1FF
100
AcDbEntity
  8
0
  6
Continuous
 62
   142
100
AcDbPolyline
 90
        2
 70
     0
 43
0.4999999847
 10
43.183265686
 20
34.6978263855
 10
42.9660720825
 20
34.6003913879
  0
LWPOLYLINE
  5
6DB
330
1FF
100
AcDbEntity
  8
0
  6
Continuous
 62
   142
100
AcDbPolyline
 90
        2
 70
     0
 43
0.3500000019
 10
46.1379470825
 20
31.6390266418
 10
45.89810180659998
 20
31.5316505432
  0
LWPOLYLINE
  5
6DC
330
1FF
100
AcDbEntity
  8
0
  6
Continuous
 62
   142
100
AcDbPolyline
 90
        2
 70
     0
 43
0.3500000019
 10
46.2296218872
 20
31.6800575256
 10
46.1379470825
 20
31.6390266418
  0
LWPOLYLINE
  5
6DD
330
1FF
100
AcDbEntity
  8
0
  6
Continuous
 62
   142
100
AcDbPolyline
 90
        2
 70
     0
 43
0.4999999847
 10
43.08603668209999
 20
34.6543235779
 10
43.183265686
 20
34.6978263855
  0
LWPOLYLINE
  5
6DE
330
1FF
100
AcDbEntity
  8
0
  6
Continuous
 62
   142
100
AcDbPolyline
 90
        2
 70
     0
 43
0.3500000019
 10
48.9527359009
 20
37.2746086121
 10
43.183265686
 20
34.6978263855
  0
LWPOLYLINE
  5
6DF
330
1FF
100
AcDbEntity
  8
0
  6
Continuous
 62
   142
100
AcDbPolyline
 90
        2
 70
     0
 43
0.4999999847
 10
45.9206085205
 20
26.4037742615
 10
45.83847045899999
 20
26.3671607971
  0
LWPOLYLINE
  5
6E0
330
1FF
100
AcDbEntity
  8
0
  6
Continuous
 62
   142
100
AcDbPolyline
 90
        2
 70
     0
 43
0.4999999847
 10
45.83847045899999
 20
26.3671607971
 10
45.66366577149999
 20
26.2892875671
  0
LWPOLYLINE
  5
6E1
330
1FF
100
AcDbEntity
  8
0
  6
Continuous
 62
   142
100
AcDbPolyline
 90
        2
 70
     0
 43
0.4999999847
 10
45.66366577149999
 20
26.2892875671
 10
45.64716339109999
 20
26.2819404602
  0
LWPOLYLINE
  5
6E2
330
1FF
100
AcDbEntity
  8
0
  6
Continuous
 62
   142
100
AcDbPolyline
 90
        2
 70
     0
 43
0.3500000019
 10
37.912399292
 20
34.2708930969
 10
39.0573654175
 20
34.7788352966
  0
LWPOLYLINE
  5
6E3
330
1FF
100
AcDbEntity
  8
0
  6
Continuous
 62
   142
100
AcDbPolyline
 90
        2
 70
     0
 43
0.4999999847
 10
41.67094421389999
 20
36.0381278992
 10
47.4271850586
 20
38.5909004211
  0
LWPOLYLINE
  5
6E4
330
1FF
100
AcDbEntity
  8
0
  6
Continuous
 62
   142
100
AcDbPolyline
 90
        2
 70
     0
 43
0.4999999847
 10
36.1547393799
 20
35.2897453308
 10
35.4588851929
 20
34.9829444885
  0
LWPOLYLINE
  5
6E5
330
1FF
100
AcDbEntity
  8
0
  6
Continuous
 62
   142
100
AcDbPolyline
 90
        2
 70
     0
 43
0.3500000019
 10
37.7767028809
 20
34.211353302
 10
37.912399292
 20
34.2708930969
  0
LWPOLYLINE
  5
6E6
330
1FF
100
AcDbEntity
  8
0
  6
Continuous
 62
   142
100
AcDbPolyline
 90
        2
 70
     0
 43
0.4999999847
 10
69.6353302002
 20
45.97388839719999
 10
67.1734771729
 20
44.9104042053
  0
LWPOLYLINE
  5
6E7
330
1FF
100
AcDbEntity
  8
0
  6
Continuous
 62
   142
100
AcDbPolyline
 90
        2
 70
     0
 43
0.3500000019
 10
37.6374282837
 20
34.151348114
 10
37.7767028809
 20
34.211353302
  0
LWPOLYLINE
  5
6E8
330
1FF
100
AcDbEntity
  8
0
  6
Continuous
 62
   142
100
AcDbPolyline
 90
        2
 70
     0
 43
0.3500000019
 10
37.4752655029
 20
34.0826225281
 10
37.6374282837
 20
34.151348114
  0
LWPOLYLINE
  5
6E9
330
1FF
100
AcDbEntity
  8
0
  6
Continuous
 62
   142
100
AcDbPolyline
 90
        2
 70
     0
 43
0.4999999847
 10
70.8426818848
 20
46.4238853455
 10
69.6353302002
 20
45.97388839719999
  0
LWPOLYLINE
  5
6EA
330
1FF
100
AcDbEntity
  8
0
  6
Continuous
 62
   142
100
AcDbPolyline
 90
        2
 70
     0
 43
0.4999999847
 10
71.29570007319998
 20
46.5927238464
 10
70.8426818848
 20
46.4238853455
  0
LWPOLYLINE
  5
6EB
330
1FF
100
AcDbEntity
  8
0
  6
Continuous
 62
   142
100
AcDbPolyline
 90
        2
 70
     0
 43
0.4999999847
 10
47.7051239014
 20
50.4152030945
 10
48.2585754395
 20
50.5824546814
  0
LWPOLYLINE
  5
6EC
330
1FF
100
AcDbEntity
  8
0
  6
Continuous
 62
   142
100
AcDbPolyline
 90
        2
 70
     0
 43
0.4999999847
 10
76.3597564697
 20
5.539089202899999
 10
76.2892913818
 20
5.483551025399999
  0
LWPOLYLINE
  5
6ED
330
1FF
100
AcDbEntity
  8
0
  6
Continuous
 62
   142
100
AcDbPolyline
 90
        2
 70
     0
 43
0.4999999847
 10
63.73876953119999
 20
16.4805030823
 10
63.702255249
 20
16.4587287903
  0
LWPOLYLINE
  5
6EE
330
1FF
100
AcDbEntity
  8
0
  6
Continuous
 62
   142
100
AcDbPolyline
 90
        2
 70
     0
 43
0.3500000019
 10
68.97630310060001
 20
28.9136695862
 10
69.0106811523
 20
28.9308280945
  0
LWPOLYLINE
  5
6EF
330
1FF
100
AcDbEntity
  8
0
  6
Continuous
 62
   142
100
AcDbPolyline
 90
        2
 70
     0
 43
0.4999999847
 10
69.3251037598
 20
29.0787696838
 10
69.3769226074
 20
29.1046180725
  0
LWPOLYLINE
  5
6F0
330
1FF
100
AcDbEntity
  8
0
  6
Continuous
 62
   142
100
AcDbPolyline
 90
        2
 70
     0
 43
0.3500000019
 10
69.07057189939999
 20
28.9600715637
 10
69.0941772461
 20
28.9715843201
  0
LWPOLYLINE
  5
6F1
330
1FF
100
AcDbEntity
  8
0
  6
Continuous
 62
   142
100
AcDbPolyline
 90
        2
 70
     0
 43
0.3500000019
 10
69.2610778809
 20
29.0517921448
 10
69.2616577148
 20
29.0520744324
  0
LWPOLYLINE
  5
6F2
330
1FF
100
AcDbEntity
  8
0
  6
Continuous
 62
   142
100
AcDbPolyline
 90
        2
 70
     0
 43
0.4999999847
 10
69.07434082029999
 20
28.9576225281
 10
69.0749206543
 20
28.9579048157
  0
LWPOLYLINE
  5
6F3
330
1FF
100
AcDbEntity
  8
0
  6
Continuous
 62
   142
100
AcDbPolyline
 90
        2
 70
     0
 43
0.3500000019
 10
59.8263549805
 20
17.1015663147
 10
60.53251647949998
 20
17.4453086853
  0
LWPOLYLINE
  5
6F4
330
1FF
100
AcDbEntity
  8
0
  6
Continuous
 62
   142
100
AcDbPolyline
 90
        2
 70
     0
 43
0.4999999847
 10
69.23289489750001
 20
29.0337791443
 10
69.3251037598
 20
29.0787696838
  0
LWPOLYLINE
  5
6F5
330
1FF
100
AcDbEntity
  8
0
  6
Continuous
 62
   142
100
AcDbPolyline
 90
        2
 70
     0
 43
0.4999999847
 10
57.8331375122
 20
17.9535102844
 10
55.48504638669999
 20
16.8172950745
  0
LWPOLYLINE
  5
6F6
330
1FF
100
AcDbEntity
  8
0
  6
Continuous
 62
   142
100
AcDbPolyline
 90
        2
 70
     0
 43
0.4999999847
 10
69.17166137699999
 20
29.0042152405
 10
69.23289489750001
 20
29.0337791443
  0
LWPOLYLINE
  5
6F7
330
1FF
100
AcDbEntity
  8
0
  6
Continuous
 62
   142
100
AcDbPolyline
 90
        2
 70
     0
 43
0.4999999847
 10
68.9896850586
 20
28.91764450070001
 10
68.99052429200001
 20
28.9180488586
  0
LWPOLYLINE
  5
6F8
330
1FF
100
AcDbEntity
  8
0
  6
Continuous
 62
   142
100
AcDbPolyline
 90
        2
 70
     0
 43
0.4999999847
 10
57.9175109863
 20
20.5795402527
 10
57.38216400149999
 20
20.3226966858
  0
LWPOLYLINE
  5
6F9
330
1FF
100
AcDbEntity
  8
0
  6
Continuous
 62
   142
100
AcDbPolyline
 90
        2
 70
     0
 43
0.4999999847
 10
64.1007537842
 20
24.2046089172
 10
58.2067260742
 20
21.3832969666
  0
LWPOLYLINE
  5
6FA
330
1FF
100
AcDbEntity
  8
0
  6
Continuous
 62
   142
100
AcDbPolyline
 90
        2
 70
     0
 43
0.3500000019
 10
69.22491455079999
 20
29.034488678
 10
69.2610778809
 20
29.0517921448
  0
LWPOLYLINE
  5
6FB
330
1FF
100
AcDbEntity
  8
0
  6
Continuous
 62
   142
100
AcDbPolyline
 90
        2
 70
     0
 43
0.4999999847
 10
69.0749206543
 20
28.9579048157
 10
69.17166137699999
 20
29.0042152405
  0
LWPOLYLINE
  5
6FC
330
1FF
100
AcDbEntity
  8
0
  6
Continuous
 62
   142
100
AcDbPolyline
 90
        2
 70
     0
 43
0.3500000019
 10
63.3279418945
 20
24.8713874817
 10
57.439956665
 20
22.0628395081
  0
LWPOLYLINE
  5
6FD
330
1FF
100
AcDbEntity
  8
0
  6
Continuous
 62
   142
100
AcDbPolyline
 90
        2
 70
     0
 43
0.3500000019
 10
59.7251205444
 20
17.0532646179
 10
59.8263549805
 20
17.1015663147
  0
LWPOLYLINE
  5
6FE
330
1FF
100
AcDbEntity
  8
0
  6
Continuous
 62
   142
100
AcDbPolyline
 90
        2
 70
     0
 43
0.4999999847
 10
51.24837493899999
 20
21.4077796936
 10
53.7390213013
 20
22.5854988098
  0
LWPOLYLINE
  5
6FF
330
1FF
100
AcDbEntity
  8
0
  6
Continuous
 62
   142
100
AcDbPolyline
 90
        2
 70
     0
 43
0.3500000019
 10
69.34548950199999
 20
29.09167099
 10
69.3285980225
 20
29.0836906433
  0
LWPOLYLINE
  5
700
330
1FF
100
AcDbEntity
  8
0
  6
Continuous
 62
   142
100
AcDbPolyline
 90
        2
 70
     0
 43
0.4999999847
 10
69.00743103029999
 20
28.9260292053
 10
69.07434082029999
 20
28.9576225281
  0
LWPOLYLINE
  5
701
330
1FF
100
AcDbEntity
  8
0
  6
Continuous
 62
   142
100
AcDbPolyline
 90
        2
 70
     0
 43
0.4999999847
 10
68.99052429200001
 20
28.9180488586
 10
69.00743103029999
 20
28.9260292053
  0
LWPOLYLINE
  5
702
330
1FF
100
AcDbEntity
  8
0
  6
Continuous
 62
   142
100
AcDbPolyline
 90
        2
 70
     0
 43
0.3500000019
 10
57.439956665
 20
22.0628395081
 10
57.32930755619999
 20
22.0109291077
  0
LWPOLYLINE
  5
703
330
1FF
100
AcDbEntity
  8
0
  6
Continuous
 62
   142
100
AcDbPolyline
 90
        2
 70
     0
 43
0.3500000019
 10
48.700012207
 20
25.198299408
 10
48.56224823
 20
25.1339073181
  0
LWPOLYLINE
  5
704
330
1FF
100
AcDbEntity
  8
0
  6
Continuous
 62
   142
100
AcDbPolyline
 90
        2
 70
     0
 43
0.4999999847
 10
51.70676422119999
 20
25.3827476501
 10
52.12906646729999
 20
25.5801277161
  0
LWPOLYLINE
  5
705
330
1FF
100
AcDbEntity
  8
0
  6
Continuous
 62
   142
100
AcDbPolyline
 90
        2
 70
     0
 43
0.4999999847
 10
52.4108428955
 20
26.5198783875
 10
58.25835418699998
 20
29.2455406189
  0
LWPOLYLINE
  5
706
330
1FF
100
AcDbEntity
  8
0
  6
Continuous
 62
   142
100
AcDbPolyline
 90
        2
 70
     0
 43
0.3500000019
 10
48.8498840332
 20
25.2680549622
 10
48.700012207
 20
25.198299408
  0
LWPOLYLINE
  5
707
330
1FF
100
AcDbEntity
  8
0
  6
Continuous
 62
   142
100
AcDbPolyline
 90
        2
 70
     0
 43
0.3500000019
 10
69.38529968260001
 20
29.1097755432
 10
69.35604858399999
 20
29.096446991
  0
LWPOLYLINE
  5
708
330
1FF
100
AcDbEntity
  8
0
  6
Continuous
 62
   142
100
AcDbPolyline
 90
        2
 70
     0
 43
0.4999999847
 10
68.9506530762
 20
28.8998985291
 10
68.9896850586
 20
28.91764450070001
  0
LWPOLYLINE
  5
709
330
1FF
100
AcDbEntity
  8
0
  6
Continuous
 62
   142
100
AcDbPolyline
 90
        2
 70
     0
 43
0.3500000019
 10
57.32930755619999
 20
22.0109291077
 10
57.0375976562
 20
21.8799171448
  0
LWPOLYLINE
  5
70A
330
1FF
100
AcDbEntity
  8
0
  6
Continuous
 62
   142
100
AcDbPolyline
 90
        2
 70
     0
 43
0.4999999847
 10
51.6396026611
 20
25.3596534729
 10
51.70676422119999
 20
25.3827476501
  0
LWPOLYLINE
  5
70C
330
1FF
100
AcDbEntity
  8
0
  6
Continuous
 62
   142
100
AcDbPolyline
 90
        2
 70
     0
 43
0.4999999847
 10
69.81353759770001
 20
11.312297821
 10
69.82997131350001
 20
11.3216209412
  0
LWPOLYLINE
  5
70D
330
1FF
100
AcDbEntity
  8
0
  6
Continuous
 62
   142
100
AcDbPolyline
 90
        2
 70
     0
 43
0.4999999847
 10
73.5172729492
 20
6.1081962585
 10
71.8255157471
 20
5.2356758118
  0
LWPOLYLINE
  5
70E
330
1FF
100
AcDbEntity
  8
0
  6
Continuous
 62
   142
100
AcDbPolyline
 90
        2
 70
     0
 43
0.4999999847
 10
73.59809875489999
 20
7.425354003899999
 10
73.2660827637
 20
7.2547912598
  0
LWPOLYLINE
  5
70F
330
1FF
100
AcDbEntity
  8
0
  6
Continuous
 62
   142
100
AcDbPolyline
 90
        2
 70
     0
 43
0.4999999847
 10
80.0488586426
 20
11.0864143372
 10
73.746887207
 20
7.8529510498
  0
LWPOLYLINE
  5
710
330
1FF
100
AcDbEntity
  8
0
  6
Continuous
 62
   142
100
AcDbPolyline
 90
        2
 70
     0
 43
0.3500000019
 10
79.62403869630001
 20
11.4521903992
 10
73.32518005369998
 20
8.226421356199999
  0
LWPOLYLINE
  5
711
330
1FF
100
AcDbEntity
  8
0
  6
Continuous
 62
   142
100
AcDbPolyline
 90
        2
 70
     0
 43
0.4999999847
 10
67.25761413569999
 20
6.138446807899999
 10
70.75807189939998
 20
7.9252929688
  0
LWPOLYLINE
  5
712
330
1FF
100
AcDbEntity
  8
0
  6
Continuous
 62
   142
100
AcDbPolyline
 90
        2
 70
     0
 43
0.3500000019
 10
73.32518005369998
 20
8.226421356199999
 10
73.3078460693
 20
8.2176399231
  0
LWPOLYLINE
  5
713
330
1FF
100
AcDbEntity
  8
0
  6
Continuous
 62
   142
100
AcDbPolyline
 90
        2
 70
     0
 43
0.4999999847
 10
69.82997131350001
 20
11.3216209412
 10
76.1027984619
 20
14.4840812683
  0
LWPOLYLINE
  5
714
330
1FF
100
AcDbEntity
  8
0
  6
Continuous
 62
   142
100
AcDbPolyline
 90
        2
 70
     0
 43
0.4999999847
 10
63.4361877441
 20
9.604835510299999
 10
65.28775024409998
 20
10.53383255
  0
LWPOLYLINE
  5
715
330
1FF
100
AcDbEntity
  8
0
  6
Continuous
 62
   142
100
AcDbPolyline
 90
        2
 70
     0
 43
0.4999999847
 10
73.93817138670002
 20
15.7166786194
 10
67.9700012207
 20
12.7305717468
  0
LWPOLYLINE
  5
716
330
1FF
100
AcDbEntity
  8
0
  6
Continuous
 62
   142
100
AcDbPolyline
 90
        2
 70
     0
 43
0.4999999847
 10
62.7669067383
 20
14.0431175232
 10
63.9638519287
 20
14.6354637146
  0
LWPOLYLINE
  5
717
330
1FF
100
AcDbEntity
  8
0
  6
Continuous
 62
   142
100
AcDbPolyline
 90
        2
 70
     0
 43
0.4999999847
 10
59.6734237671
 20
13.0180473328
 10
60.74475097659998
 20
13.5464515686
  0
LWPOLYLINE
  5
718
330
1FF
100
AcDbEntity
  8
0
  6
Continuous
 62
   142
100
AcDbPolyline
 90
        2
 70
     0
 43
0.4999999847
 10
69.675491333
 20
19.394618988
 10
63.73876953119999
 20
16.4805030823
  0
LWPOLYLINE
  5
719
330
1FF
100
AcDbEntity
  8
0
  6
Continuous
 62
   142
100
AcDbPolyline
 90
        2
 70
     0
 43
0.3500000019
 10
59.4368972778
 20
16.9234962463
 10
59.60098266600001
 20
16.9973945618
  0
LWPOLYLINE
  5
71A
330
1FF
100
AcDbEntity
  8
0
  6
Continuous
 62
   142
100
AcDbPolyline
 90
        2
 70
     0
 43
0.3500000019
 10
59.60098266600001
 20
16.9973945618
 10
59.7251205444
 20
17.0532646179
  0
LWPOLYLINE
  5
71B
330
1FF
100
AcDbEntity
  8
0
  6
Continuous
 62
   142
100
AcDbPolyline
 90
        2
 70
     0
 43
0.4999999847
 10
50.8994827271
 20
21.297039032
 10
51.1139984131
 20
21.3652153015
  0
LWPOLYLINE
  5
71C
330
1FF
100
AcDbEntity
  8
0
  6
Continuous
 62
   142
100
AcDbPolyline
 90
        2
 70
     0
 43
0.4999999847
 10
51.1139984131
 20
21.3652153015
 10
51.24837493899999
 20
21.4077796936
  0
LWPOLYLINE
  5
71D
330
1FF
100
AcDbEntity
  8
0
  6
Continuous
 62
   142
100
AcDbPolyline
 90
        2
 70
     0
 43
0.4999999847
 10
57.38216400149999
 20
20.3226966858
 10
57.2724533081
 20
20.2893180847
  0
LWPOLYLINE
  5
71E
330
1FF
100
AcDbEntity
  8
0
  6
Continuous
 62
   142
100
AcDbPolyline
 90
        2
 70
     0
 43
0.4999999847
 10
77.63014221189997
 20
0.0218009949
 10
83.9225006104
 20
3.3524246216
  0
LWPOLYLINE
  5
71F
330
1FF
100
AcDbEntity
  8
0
  6
Continuous
 62
   142
100
AcDbPolyline
 90
        2
 70
     0
 43
0.4999999847
 10
75.93260192869998
 20
1.548084259
 10
76.6018371582
 20
1.8996391296
  0
LWPOLYLINE
  5
720
330
1FF
100
AcDbEntity
  8
0
  6
Continuous
 62
   142
100
AcDbPolyline
 90
        2
 70
     0
 43
0.3500000019
 10
77.9172821045
 20
4.159778594999998
 10
84.24928283689999
 20
7.4696846008
  0
LWPOLYLINE
  5
721
330
1FF
100
AcDbEntity
  8
0
  6
Continuous
 62
   142
100
AcDbPolyline
 90
        2
 70
     0
 43
0.4999999847
 10
74.41371154789997
 20
2.911834716799998
 10
74.8050079346
 20
3.116012573199998
  0
LWPOLYLINE
  5
722
330
1FF
100
AcDbEntity
  8
0
  6
Continuous
 62
   142
100
AcDbPolyline
 90
        2
 70
     0
 43
0.4999999847
 10
82.68064880369998
 20
8.820343017599997
 10
76.3597564697
 20
5.539089202899999
  0
LWPOLYLINE
  5
723
330
1FF
100
AcDbEntity
  8
0
  6
Continuous
 62
   142
100
AcDbPolyline
 90
        2
 70
     0
 43
0.3500000019
 10
75.3221435547
 20
6.4579620361
 10
75.18655395509998
 20
6.387805938699998
  0
LWPOLYLINE
  5
724
330
1FF
100
AcDbEntity
  8
0
  6
Continuous
 62
   142
100
AcDbPolyline
 90
        2
 70
     0
 43
0.3500000019
 10
81.63557434080003
 20
9.720191955599998
 10
75.3221435547
 20
6.4579620361
  0
LWPOLYLINE
  5
725
330
1FF
100
AcDbEntity
  8
0
  6
Continuous
 62
   142
100
AcDbPolyline
 90
        2
 70
     0
 43
0.3500000019
 10
77.82638549800001
 20
4.1150932312
 10
77.9172821045
 20
4.159778594999998
  0
LWPOLYLINE
  5
726
330
1FF
100
AcDbEntity
  8
0
  6
Continuous
 62
   142
100
AcDbPolyline
 90
        2
 70
     0
 43
0.4999999847
 10
74.39857482909999
 20
2.9047470093
 10
74.41371154789997
 20
2.911834716799998
  0
LWPOLYLINE
  5
727
330
1FF
100
AcDbEntity
  8
0
  6
Continuous
 62
   142
100
AcDbPolyline
 90
        2
 70
     0
 43
0.3500000019
 10
73.3078460693
 20
8.2176399231
 10
73.1950836182
 20
8.1649055481
  0
LWPOLYLINE
  5
728
330
1FF
100
AcDbEntity
  8
0
  6
Continuous
 62
   142
100
AcDbPolyline
 90
        2
 70
     0
 43
0.3500000019
 10
73.1950836182
 20
8.1649055481
 10
73.17358398439998
 20
8.154853820799999
  0
LWPOLYLINE
  5
729
330
1FF
100
AcDbEntity
  8
0
  6
Continuous
 62
   142
100
AcDbPolyline
 90
        2
 70
     0
 43
0.4999999847
 10
73.2660827637
 20
7.2547912598
 10
73.24882507319998
 20
7.246974945099998
  0
LWPOLYLINE
  5
72A
330
1FF
100
AcDbEntity
  8
0
  6
Continuous
 62
   142
100
AcDbPolyline
 90
        2
 70
     0
 43
0.3500000019
 10
77.801071167
 20
4.103866577099998
 10
77.82638549800001
 20
4.1150932312
  0
LWPOLYLINE
  5
72B
330
1FF
100
AcDbEntity
  8
0
  6
Continuous
 62
   142
100
AcDbPolyline
 90
        2
 70
     0
 43
0.3500000019
 10
77.71813964839998
 20
4.0670928955
 10
77.801071167
 20
4.103866577099998
  0
LWPOLYLINE
  5
72C
330
1FF
100
AcDbEntity
  8
0
  6
Continuous
 62
   142
100
AcDbPolyline
 90
        2
 70
     0
 43
0.3500000019
 10
73.17358398439998
 20
8.154853820799999
 10
72.9754638672
 20
8.073680877699999
  0
LWPOLYLINE
  5
72D
330
1FF
100
AcDbEntity
  8
0
  6
Continuous
 62
   142
100
AcDbPolyline
 90
        2
 70
     0
 43
0.3500000019
 10
77.59893798829998
 20
4.019207000699998
 10
77.71813964839998
 20
4.0670928955
  0
LWPOLYLINE
  5
72E
330
1FF
100
AcDbEntity
  8
0
  6
Continuous
 62
   142
100
AcDbPolyline
 90
        2
 70
     0
 43
0.3500000019
 10
69.66882324220001
 20
10.9955863953
 10
69.6926269531
 20
11.0045814514
  0
LWPOLYLINE
  5
72F
330
1FF
100
AcDbEntity
  8
0
  6
Continuous
 62
   142
100
AcDbPolyline
 90
        2
 70
     0
 43
0.4999999847
 10
63.3584289551
 20
9.578258514399999
 10
63.4361877441
 20
9.604835510299999
  0
LWPOLYLINE
  5
730
330
1FF
100
AcDbEntity
  8
0
  6
Continuous
 62
   142
100
AcDbPolyline
 90
        2
 70
     0
 43
0.4999999847
 10
75.8510131836
 20
1.524070739699999
 10
75.93260192869998
 20
1.548084259
  0
ENDSEC
  0
SECTION
  2
OBJECTS
  0
DICTIONARY
  5
C
330
0
100
AcDbDictionary
281
     1
  3
ACAD_COLOR
350
760
  3
ACAD_GROUP
350
D
  3
ACAD_LAYOUT
350
1A
  3
ACAD_MATERIAL
350
736
  3
ACAD_MLEADERSTYLE
350
785
  3
ACAD_MLINESTYLE
350
17
  3
ACAD_PLOTSETTINGS
350
19
  3
ACAD_PLOTSTYLENAME
350
E
  3
ACAD_SCALELIST
350
763
  3
ACAD_TABLESTYLE
350
761
  3
ACAD_VISUALSTYLE
350
74F
  3
ACDB_RECOMPOSE_DATA
350
78A
  3
AcDbVariableDictionary
350
78B
  0
DICTIONARY
  5
794
330
10
100
AcDbDictionary
280
     1
281
     1
  3
ADSK_XREC_LAYER_RECONCILED
360
795
  0
DICTIONARY
  5
796
330
1FA
100
AcDbDictionary
280
     1
281
     1
  3
ADSK_XREC_LAYER_RECONCILED
360
797
  0
DICTIONARY
  5
798
330
1FB
100
AcDbDictionary
280
     1
281
     1
  3
ADSK_XREC_LAYER_RECONCILED
360
799
  0
DICTIONARY
  5
79A
330
1FC
100
AcDbDictionary
280
     1
281
     1
  3
ADSK_XREC_LAYER_RECONCILED
360
79B
  0
DICTIONARY
  5
760
102
{ACAD_REACTORS
330
C
102
}
330
C
100
AcDbDictionary
281
     1
  0
DICTIONARY
  5
D
102
{ACAD_REACTORS
330
C
102
}
330
C
100
AcDbDictionary
281
     1
  0
DICTIONARY
  5
1A
102
{ACAD_REACTORS
330
C
102
}
330
C
100
AcDbDictionary
281
     1
  3
Layout1
350
733
  3
Model
350
732
  0
DICTIONARY
  5
736
102
{ACAD_REACTORS
330
C
102
}
330
C
100
AcDbDictionary
281
     1
  3
ByBlock
350
73F
  3
ByLayer
350
737
  3
Global
350
747
  0
DICTIONARY
  5
785
102
{ACAD_REACTORS
330
C
102
}
330
C
100
AcDbDictionary
281
     1
  3
Standard
350
786
  0
DICTIONARY
  5
17
102
{ACAD_REACTORS
330
C
102
}
330
C
100
AcDbDictionary
281
     1
  3
Standard
350
18
  0
DICTIONARY
  5
19
102
{ACAD_REACTORS
330
C
102
}
330
C
100
AcDbDictionary
281
     1
  0
ACDBDICTIONARYWDFLT
  5
E
102
{ACAD_REACTORS
330
C
102
}
330
C
100
AcDbDictionary
281
     1
  3
Normal
350
F
100
AcDbDictionaryWithDefault
340
F
  0
DICTIONARY
  5
763
102
{ACAD_REACTORS
330
C
102
}
330
C
100
AcDbDictionary
281
     1
  3
A0
350
764
  3
A1
350
765
  3
A2
350
766
  3
A3
350
767
  3
A4
350
768
  3
A5
350
769
  3
A6
350
76A
  3
A7
350
76B
  3
A8
350
76C
  3
A9
350
76D
  3
B0
350
76E
  3
B1
350
76F
  3
B2
350
770
  3
B3
350
771
  3
B4
350
772
  3
B5
350
773
  3
B6
350
774
  3
B7
350
775
  3
B8
350
776
  3
B9
350
777
  3
C0
350
778
  3
C1
350
779
  3
C2
350
77A
  3
C3
350
77B
  3
C4
350
77C
  3
C5
350
77D
  3
C6
350
77E
  3
C7
350
77F
  3
C8
350
780
  3
C9
350
781
  3
D0
350
782
  3
D1
350
783
  3
D2
350
784
  0
DICTIONARY
  5
761
102
{ACAD_REACTORS
330
C
102
}
330
C
100
AcDbDictionary
281
     1
  3
Standard
350
762
  0
DICTIONARY
  5
74F
102
{ACAD_REACTORS
330
C
102
}
330
C
100
AcDbDictionary
281
     1
  3
2dWireframe
350
755
  3
3D Hidden
350
757
  3
3dWireframe
350
756
  3
Basic
350
754
  3
Brighten
350
75B
  3
ColorChange
350
75F
  3
Conceptual
350
758
  3
Dim
350
75A
  3
Facepattern
350
75E
  3
Flat
350
750
  3
FlatWithEdges
350
751
  3
Gouraud
350
752
  3
GouraudWithEdges
350
753
  3
Linepattern
350
75D
  3
Realistic
350
759
  3
Thicken
350
75C
  0
XRECORD
  5
78A
102
{ACAD_REACTORS
330
C
102
}
330
C
100
AcDbXrecord
280
     1
 90
        1
330
762
  0
DICTIONARY
  5
78B
102
{ACAD_REACTORS
330
C
102
}
330
C
100
AcDbDictionary
281
     1
  3
CANNOSCALE
350
78E
  3
CMLEADERSTYLE
350
78D
  3
CTABLESTYLE
350
78C
  0
XRECORD
  5
795
102
{ACAD_REACTORS
330
794
102
}
330
794
100
AcDbXrecord
280
     1
290
     1
  0
XRECORD
  5
797
102
{ACAD_REACTORS
330
796
102
}
330
796
100
AcDbXrecord
280
     1
290
     1
  0
XRECORD
  5
799
102
{ACAD_REACTORS
330
798
102
}
330
798
100
AcDbXrecord
280
     1
290
     1
  0
XRECORD
  5
79B
102
{ACAD_REACTORS
330
79A
102
}
330
79A
100
AcDbXrecord
280
     1
290
     1
  0
LAYOUT
  5
733
102
{ACAD_REACTORS
330
1A
102
}
330
1A
100
AcDbPlotSettings
  1

  2
none_device
  4

  6

 40
0.0
 41
0.0
 42
0.0
 43
0.0
 44
210.0
 45
297.0
 46
0.0
 47
0.0
 48
0.0
 49
0.0
140
0.0
141
0.0
142
1.0
143
1.0
 70
     0
 72
     1
 73
     0
 74
     0
  7

 75
     0
147
1.0
 76
     0
 77
     2
 78
   300
148
0.0
149
0.0
100
AcDbLayout
  1
Layout1
 70
     1
 71
     1
 10
0.0
 20
0.0
 11
12.0
 21
9.0
 12
0.0
 22
0.0
 32
0.0
 14
1.000000000000000E+20
 24
1.000000000000000E+20
 34
1.000000000000000E+20
 15
-1.000000000000000E+20
 25
-1.000000000000000E+20
 35
-1.000000000000000E+20
146
0.0
 13
0.0
 23
0.0
 33
0.0
 16
1.0
 26
0.0
 36
0.0
 17
0.0
 27
1.0
 37
0.0
 76
     0
330
200
  0
LAYOUT
  5
732
102
{ACAD_REACTORS
330
1A
102
}
330
1A
100
AcDbPlotSettings
  1

  2
none_device
  4

  6

 40
0.0
 41
0.0
 42
0.0
 43
0.0
 44
210.0
 45
297.0
 46
0.0
 47
0.0
 48
0.0
 49
0.0
140
0.0
141
0.0
142
1.0
143
1.0
 70
  1024
 72
     1
 73
     0
 74
     0
  7

 75
     0
147
1.0
 76
     0
 77
     2
 78
   300
148
0.0
149
0.0
100
AcDbLayout
  1
Model
 70
     0
 71
     0
 10
0.0
 20
0.0
 11
210.0
 21
297.0
 12
0.0
 22
0.0
 32
0.0
 14
0.0
 24
0.0
 34
0.0
 15
0.0
 25
0.0
 35
0.0
146
0.0
 13
0.0
 23
0.0
 33
0.0
 16
1.0
 26
0.0
 36
0.0
 17
0.0
 27
1.0
 37
0.0
 76
     0
330
1FF
331
1F4
  0
MATERIAL
  5
73F
102
{ACAD_XDICTIONARY
360
740
102
}
102
{ACAD_REACTORS
330
736
102
}
330
736
100
AcDbMaterial
  1
ByBlock
 72
     0
 43
0.0008202099737533
 43
0.0
 43
0.0
 43
0.0
 43
0.0
 43
0.0008202099737533
 43
0.0
 43
0.0
 43
0.0
 43
0.0
 43
1.0
 43
0.0
 43
0.0
 43
0.0
 43
0.0
 43
1.0
 77
     0
 47
0.0008202099737533
 47
0.0
 47
0.0
 47
0.0
 47
0.0
 47
0.0008202099737533
 47
0.0
 47
0.0
 47
0.0
 47
0.0
 47
1.0
 47
0.0
 47
0.0
 47
0.0
 47
0.0
 47
1.0
171
     0
 49
0.0008202099737533
 49
0.0
 49
0.0
 49
0.0
 49
0.0
 49
0.0008202099737533
 49
0.0
 49
0.0
 49
0.0
 49
0.0
 49
1.0
 49
0.0
 49
0.0
 49
0.0
 49
0.0
 49
1.0
175
     0
142
0.0008202099737533
142
0.0
142
0.0
142
0.0
142
0.0
142
0.0008202099737533
142
0.0
142
0.0
142
0.0
142
0.0
142
1.0
142
0.0
142
0.0
142
0.0
142
0.0
142
1.0
179
     0
144
0.0008202099737533
144
0.0
144
0.0
144
0.0
144
0.0
144
0.0008202099737533
144
0.0
144
0.0
144
0.0
144
0.0
144
1.0
144
0.0
144
0.0
144
0.0
144
0.0
144
1.0
147
0.0008202099737533
147
0.0
147
0.0
147
0.0
147
0.0
147
0.0008202099737533
147
0.0
147
0.0
147
0.0
147
0.0
147
1.0
147
0.0
147
0.0
147
0.0
147
0.0
147
1.0
  0
MATERIAL
  5
737
102
{ACAD_XDICTIONARY
360
738
102
}
102
{ACAD_REACTORS
330
736
102
}
330
736
100
AcDbMaterial
  1
ByLayer
 72
     0
 43
0.0008202099737533
 43
0.0
 43
0.0
 43
0.0
 43
0.0
 43
0.0008202099737533
 43
0.0
 43
0.0
 43
0.0
 43
0.0
 43
1.0
 43
0.0
 43
0.0
 43
0.0
 43
0.0
 43
1.0
 77
     0
 47
0.0008202099737533
 47
0.0
 47
0.0
 47
0.0
 47
0.0
 47
0.0008202099737533
 47
0.0
 47
0.0
 47
0.0
 47
0.0
 47
1.0
 47
0.0
 47
0.0
 47
0.0
 47
0.0
 47
1.0
171
     0
 49
0.0008202099737533
 49
0.0
 49
0.0
 49
0.0
 49
0.0
 49
0.0008202099737533
 49
0.0
 49
0.0
 49
0.0
 49
0.0
 49
1.0
 49
0.0
 49
0.0
 49
0.0
 49
0.0
 49
1.0
175
     0
142
0.0008202099737533
142
0.0
142
0.0
142
0.0
142
0.0
142
0.0008202099737533
142
0.0
142
0.0
142
0.0
142
0.0
142
1.0
142
0.0
142
0.0
142
0.0
142
0.0
142
1.0
179
     0
144
0.0008202099737533
144
0.0
144
0.0
144
0.0
144
0.0
144
0.0008202099737533
144
0.0
144
0.0
144
0.0
144
0.0
144
1.0
144
0.0
144
0.0
144
0.0
144
0.0
144
1.0
147
0.0008202099737533
147
0.0
147
0.0
147
0.0
147
0.0
147
0.0008202099737533
147
0.0
147
0.0
147
0.0
147
0.0
147
1.0
147
0.0
147
0.0
147
0.0
147
0.0
147
1.0
  0
MATERIAL
  5
747
102
{ACAD_XDICTIONARY
360
748
102
}
102
{ACAD_REACTORS
330
736
102
}
330
736
100
AcDbMaterial
  1
Global
 72
     0
 43
0.0008202099737533
 43
0.0
 43
0.0
 43
0.0
 43
0.0
 43
0.0008202099737533
 43
0.0
 43
0.0
 43
0.0
 43
0.0
 43
1.0
 43
0.0
 43
0.0
 43
0.0
 43
0.0
 43
1.0
 77
     0
 47
0.0008202099737533
 47
0.0
 47
0.0
 47
0.0
 47
0.0
 47
0.0008202099737533
 47
0.0
 47
0.0
 47
0.0
 47
0.0
 47
1.0
 47
0.0
 47
0.0
 47
0.0
 47
0.0
 47
1.0
171
     0
 49
0.0008202099737533
 49
0.0
 49
0.0
 49
0.0
 49
0.0
 49
0.0008202099737533
 49
0.0
 49
0.0
 49
0.0
 49
0.0
 49
1.0
 49
0.0
 49
0.0
 49
0.0
 49
0.0
 49
1.0
175
     0
142
0.0008202099737533
142
0.0
142
0.0
142
0.0
142
0.0
142
0.0008202099737533
142
0.0
142
0.0
142
0.0
142
0.0
142
1.0
142
0.0
142
0.0
142
0.0
142
0.0
142
1.0
179
     0
144
0.0008202099737533
144
0.0
144
0.0
144
0.0
144
0.0
144
0.0008202099737533
144
0.0
144
0.0
144
0.0
144
0.0
144
1.0
144
0.0
144
0.0
144
0.0
144
0.0
144
1.0
147
0.0008202099737533
147
0.0
147
0.0
147
0.0
147
0.0
147
0.0008202099737533
147
0.0
147
0.0
147
0.0
147
0.0
147
1.0
147
0.0
147
0.0
147
0.0
147
0.0
147
1.0
  0
MLEADERSTYLE
  5
786
102
{ACAD_REACTORS
330
785
102
}
330
785
100
AcDbMLeaderStyle
170
     2
171
     1
172
     0
 90
        2
 40
0.0
 41
0.0
173
     1
 91
-1056964608
340
14
 92
       -2
290
     1
 42
2.0
291
     1
 43
0.36
  3
Standard
 44
4.0
300

342
11
174
     1
178
     6
175
     1
176
     0
 93
-1056964608
 45
4.0
292
     0
297
     0
 46
4.0
 94
-1056964608
 47
1.0
 49
1.0
140
1.0
293
     1
141
0.0
294
     1
177
     0
142
1.0
295
     0
296
     0
143
0.125
1001
ACAD_MLEADERVER
1070
     2
  0
MLINESTYLE
  5
18
102
{ACAD_REACTORS
330
17
102
}
330
17
100
AcDbMlineStyle
  2
STANDARD
 70
     0
  3

 62
   256
 51
90.0
 52
90.0
 71
     2
 49
0.5
 62
   256
  6
BYLAYER
 49
-0.5
 62
   256
  6
BYLAYER
  0
ACDBPLACEHOLDER
  5
F
102
{ACAD_REACTORS
330
E
102
}
330
E
  0
SCALE
  5
764
102
{ACAD_REACTORS
330
763
102
}
330
763
100
AcDbScale
 70
     0
300
1:1
140
1.0
141
1.0
290
     1
  0
SCALE
  5
765
102
{ACAD_REACTORS
330
763
102
}
330
763
100
AcDbScale
 70
     0
300
1:2
140
1.0
141
2.0
290
     0
  0
SCALE
  5
766
102
{ACAD_REACTORS
330
763
102
}
330
763
100
AcDbScale
 70
     0
300
1:4
140
1.0
141
4.0
290
     0
  0
SCALE
  5
767
102
{ACAD_REACTORS
330
763
102
}
330
763
100
AcDbScale
 70
     0
300
1:5
140
1.0
141
5.0
290
     0
  0
SCALE
  5
768
102
{ACAD_REACTORS
330
763
102
}
330
763
100
AcDbScale
 70
     0
300
1:8
140
1.0
141
8.0
290
     0
  0
SCALE
  5
769
102
{ACAD_REACTORS
330
763
102
}
330
763
100
AcDbScale
 70
     0
300
1:10
140
1.0
141
10.0
290
     0
  0
SCALE
  5
76A
102
{ACAD_REACTORS
330
763
102
}
330
763
100
AcDbScale
 70
     0
300
1:16
140
1.0
141
16.0
290
     0
  0
SCALE
  5
76B
102
{ACAD_REACTORS
330
763
102
}
330
763
100
AcDbScale
 70
     0
300
1:20
140
1.0
141
20.0
290
     0
  0
SCALE
  5
76C
102
{ACAD_REACTORS
330
763
102
}
330
763
100
AcDbScale
 70
     0
300
1:30
140
1.0
141
30.0
290
     0
  0
SCALE
  5
76D
102
{ACAD_REACTORS
330
763
102
}
330
763
100
AcDbScale
 70
     0
300
1:40
140
1.0
141
40.0
290
     0
  0
SCALE
  5
76E
102
{ACAD_REACTORS
330
763
102
}
330
763
100
AcDbScale
 70
     0
300
1:50
140
1.0
141
50.0
290
     0
  0
SCALE
  5
76F
102
{ACAD_REACTORS
330
763
102
}
330
763
100
AcDbScale
 70
     0
300
1:100
140
1.0
141
100.0
290
     0
  0
SCALE
  5
770
102
{ACAD_REACTORS
330
763
102
}
330
763
100
AcDbScale
 70
     0
300
2:1
140
2.0
141
1.0
290
     0
  0
SCALE
  5
771
102
{ACAD_REACTORS
330
763
102
}
330
763
100
AcDbScale
 70
     0
300
4:1
140
4.0
141
1.0
290
     0
  0
SCALE
  5
772
102
{ACAD_REACTORS
330
763
102
}
330
763
100
AcDbScale
 70
     0
300
8:1
140
8.0
141
1.0
290
     0
  0
SCALE
  5
773
102
{ACAD_REACTORS
330
763
102
}
330
763
100
AcDbScale
 70
     0
300
10:1
140
10.0
141
1.0
290
     0
  0
SCALE
  5
774
102
{ACAD_REACTORS
330
763
102
}
330
763
100
AcDbScale
 70
     0
300
100:1
140
100.0
141
1.0
290
     0
  0
SCALE
  5
775
102
{ACAD_REACTORS
330
763
102
}
330
763
100
AcDbScale
 70
     0
300
1/128" = 1'-0"
140
0.0078125
141
12.0
290
     0
  0
SCALE
  5
776
102
{ACAD_REACTORS
330
763
102
}
330
763
100
AcDbScale
 70
     0
300
1/64" = 1'-0"
140
0.015625
141
12.0
290
     0
  0
SCALE
  5
777
102
{ACAD_REACTORS
330
763
102
}
330
763
100
AcDbScale
 70
     0
300
1/32" = 1'-0"
140
0.03125
141
12.0
290
     0
  0
SCALE
  5
778
102
{ACAD_REACTORS
330
763
102
}
330
763
100
AcDbScale
 70
     0
300
1/16" = 1'-0"
140
0.0625
141
12.0
290
     0
  0
SCALE
  5
779
102
{ACAD_REACTORS
330
763
102
}
330
763
100
AcDbScale
 70
     0
300
3/32" = 1'-0"
140
0.09375
141
12.0
290
     0
  0
SCALE
  5
77A
102
{ACAD_REACTORS
330
763
102
}
330
763
100
AcDbScale
 70
     0
300
1/8" = 1'-0"
140
0.125
141
12.0
290
     0
  0
SCALE
  5
77B
102
{ACAD_REACTORS
330
763
102
}
330
763
100
AcDbScale
 70
     0
300
3/16" = 1'-0"
140
0.1875
141
12.0
290
     0
  0
SCALE
  5
77C
102
{ACAD_REACTORS
330
763
102
}
330
763
100
AcDbScale
 70
     0
300
1/4" = 1'-0"
140
0.25
141
12.0
290
     0
  0
SCALE
  5
77D
102
{ACAD_REACTORS
330
763
102
}
330
763
100
AcDbScale
 70
     0
300
3/8" = 1'-0"
140
0.375
141
12.0
290
     0
  0
SCALE
  5
77E
102
{ACAD_REACTORS
330
763
102
}
330
763
100
AcDbScale
 70
     0
300
1/2" = 1'-0"
140
0.5
141
12.0
290
     0
  0
SCALE
  5
77F
102
{ACAD_REACTORS
330
763
102
}
330
763
100
AcDbScale
 70
     0
300
3/4" = 1'-0"
140
0.75
141
12.0
290
     0
  0
SCALE
  5
780
102
{ACAD_REACTORS
330
763
102
}
330
763
100
AcDbScale
 70
     0
300
1" = 1'-0"
140
1.0
141
12.0
290
     0
  0
SCALE
  5
781
102
{ACAD_REACTORS
330
763
102
}
330
763
100
AcDbScale
 70
     0
300
1-1/2" = 1'-0"
140
1.5
141
12.0
290
     0
  0
SCALE
  5
782
102
{ACAD_REACTORS
330
763
102
}
330
763
100
AcDbScale
 70
     0
300
3" = 1'-0"
140
3.0
141
12.0
290
     0
  0
SCALE
  5
783
102
{ACAD_REACTORS
330
763
102
}
330
763
100
AcDbScale
 70
     0
300
6" = 1'-0"
140
6.0
141
12.0
290
     0
  0
SCALE
  5
784
102
{ACAD_REACTORS
330
763
102
}
330
763
100
AcDbScale
 70
     0
300
1'-0" = 1'-0"
140
12.0
141
12.0
290
     0
  0
TABLESTYLE
  5
762
102
{ACAD_XDICTIONARY
360
788
102
}
102
{ACAD_REACTORS
330
761
102
}
330
761
100
AcDbTableStyle
  3
Standard
 70
     0
 71
     0
 40
1.5
 41
1.5
280
     0
281
     0
  7
STANDARD
140
4.5
170
     2
 62
     0
 63
     7
283
     0
 90
      512
 91
        0
  1

274
    -2
284
     1
 64
     0
275
    -2
285
     1
 65
     0
276
    -2
286
     1
 66
     0
277
    -2
287
     1
 67
     0
278
    -2
288
     1
 68
     0
279
    -2
289
     1
 69
     0
  7
STANDARD
140
6.0
170
     5
 62
     0
 63
     7
283
     0
 90
      512
 91
        0
  1

274
    -2
284
     1
 64
     0
275
    -2
285
     1
 65
     0
276
    -2
286
     1
 66
     0
277
    -2
287
     1
 67
     0
278
    -2
288
     1
 68
     0
279
    -2
289
     1
 69
     0
  7
STANDARD
140
4.5
170
     5
 62
     0
 63
     7
283
     0
 90
      512
 91
        0
  1

274
    -2
284
     1
 64
     0
275
    -2
285
     1
 65
     0
276
    -2
286
     1
 66
     0
277
    -2
287
     1
 67
     0
278
    -2
288
     1
 68
     0
279
    -2
289
     1
 69
     0
  0
VISUALSTYLE
  5
755
102
{ACAD_REACTORS
330
74F
102
}
330
74F
100
AcDbVisualStyle
  2
2dWireframe
 70
     4
 71
     0
 72
     2
 73
     0
 90
        0
 40
-0.6
 41
-30.0
 62
     5
 63
     7
421
 16777215
 74
     1
 91
        4
 64
     7
 65
   257
 75
     1
175
     1
 42
1.0
 92
        0
 66
   257
 43
1.0
 76
     1
 77
     6
 78
     2
 67
     7
 79
     5
170
     0
171
     0
290
     0
174
     0
 93
        1
 44
0.0
173
     0
291
     0
 45
0.0
  0
VISUALSTYLE
  5
757
102
{ACAD_REACTORS
330
74F
102
}
330
74F
100
AcDbVisualStyle
  2
3D Hidden
 70
     6
 71
     1
 72
     2
 73
     2
 90
        0
 40
-0.6
 41
-30.0
 62
     5
 63
     7
421
 16777215
 74
     2
 91
        2
 64
     7
 65
   257
 75
     2
175
     1
 42
40.0
 92
        0
 66
   257
 43
1.0
 76
     1
 77
     6
 78
     2
 67
     7
 79
     3
170
     0
171
     0
290
     0
174
     0
 93
        1
 44
0.0
173
     0
291
     0
 45
0.0
  0
VISUALSTYLE
  5
756
102
{ACAD_REACTORS
330
74F
102
}
330
74F
100
AcDbVisualStyle
  2
3dWireframe
 70
     5
 71
     0
 72
     2
 73
     0
 90
        0
 40
-0.6
 41
-30.0
 62
     5
 63
     7
421
 16777215
 74
     1
 91
        4
 64
     7
 65
   257
 75
     1
175
     1
 42
1.0
 92
        0
 66
   257
 43
1.0
 76
     1
 77
     6
 78
     2
 67
     7
 79
     5
170
     0
171
     0
290
     0
174
     0
 93
        1
 44
0.0
173
     0
291
     0
 45
0.0
  0
VISUALSTYLE
  5
754
102
{ACAD_REACTORS
330
74F
102
}
330
74F
100
AcDbVisualStyle
  2
Basic
 70
     7
 71
     1
 72
     0
 73
     1
 90
        0
 40
-0.6
 41
-30.0
 62
     5
 63
     7
421
 16777215
 74
     0
 91
        4
 64
     7
 65
   257
 75
     1
175
     1
 42
1.0
 92
        8
 66
     7
 43
1.0
 76
     1
 77
     6
 78
     2
 67
     7
 79
     5
170
     0
171
     0
290
     0
174
     0
 93
        1
 44
0.0
173
     0
291
     1
 45
0.0
  0
VISUALSTYLE
  5
75B
102
{ACAD_REACTORS
330
74F
102
}
330
74F
100
AcDbVisualStyle
  2
Brighten
 70
    12
 71
     2
 72
     2
 73
     0
 90
        0
 40
-0.6
 41
-30.0
 62
     5
 63
     7
421
 16777215
 74
     1
 91
        4
 64
     7
 65
   257
 75
     1
175
     1
 42
1.0
 92
        8
 66
     7
 43
1.0
 76
     1
 77
     6
 78
     2
 67
     7
 79
     5
170
     0
171
     0
290
     0
174
     0
 93
        1
 44
50.0
173
     0
291
     1
 45
0.0
  0
VISUALSTYLE
  5
75F
102
{ACAD_REACTORS
330
74F
102
}
330
74F
100
AcDbVisualStyle
  2
ColorChange
 70
    16
 71
     2
 72
     2
 73
     3
 90
        0
 40
-0.6
 41
-30.0
 62
     5
 63
     8
421
  8421504
 74
     1
 91
        4
 64
     7
 65
   257
 75
     1
175
     1
 42
1.0
 92
        8
 66
     8
424
  8421504
 43
1.0
 76
     1
 77
     6
 78
     2
 67
     7
 79
     5
170
     0
171
     0
290
     0
174
     0
 93
        1
 44
0.0
173
     0
291
     1
 45
0.0
  0
VISUALSTYLE
  5
758
102
{ACAD_REACTORS
330
74F
102
}
330
74F
100
AcDbVisualStyle
  2
Conceptual
 70
     9
 71
     3
 72
     2
 73
     0
 90
        0
 40
-0.6
 41
-30.0
 62
     5
 63
     7
421
 16777215
 74
     2
 91
        2
 64
     7
 65
   257
 75
     1
175
     1
 42
40.0
 92
        8
 66
     7
 43
1.0
 76
     1
 77
     6
 78
     2
 67
     7
 79
     3
170
     0
171
     0
290
     0
174
     0
 93
        1
 44
0.0
173
     0
291
     0
 45
0.0
  0
VISUALSTYLE
  5
75A
102
{ACAD_REACTORS
330
74F
102
}
330
74F
100
AcDbVisualStyle
  2
Dim
 70
    11
 71
     2
 72
     2
 73
     0
 90
        0
 40
-0.6
 41
-30.0
 62
     5
 63
     7
421
 16777215
 74
     1
 91
        4
 64
     7
 65
   257
 75
     1
175
     1
 42
1.0
 92
        8
 66
     7
 43
1.0
 76
     1
 77
     6
 78
     2
 67
     7
 79
     5
170
     0
171
     0
290
     0
174
     0
 93
        1
 44
-50.0
173
     0
291
     1
 45
0.0
  0
VISUALSTYLE
  5
75E
102
{ACAD_REACTORS
330
74F
102
}
330
74F
100
AcDbVisualStyle
  2
Facepattern
 70
    15
 71
     2
 72
     2
 73
     0
 90
        0
 40
-0.6
 41
-30.0
 62
     5
 63
     7
421
 16777215
 74
     1
 91
        4
 64
     7
 65
   257
 75
     1
175
     1
 42
1.0
 92
        8
 66
     7
 43
1.0
 76
     1
 77
     6
 78
     2
 67
     7
 79
     5
170
     0
171
     0
290
     0
174
     0
 93
        1
 44
0.0
173
     0
291
     1
 45
0.0
  0
VISUALSTYLE
  5
750
102
{ACAD_REACTORS
330
74F
102
}
330
74F
100
AcDbVisualStyle
  2
Flat
 70
     0
 71
     2
 72
     1
 73
     1
 90
        2
 40
-0.6
 41
30.0
 62
     5
 63
     7
421
 16777215
 74
     0
 91
        4
 64
     7
 65
   257
 75
     1
175
     1
 42
1.0
 92
        8
 66
     7
 43
1.0
 76
     1
 77
     6
 78
     2
 67
     7
 79
     5
170
     0
171
     0
290
     0
174
     0
 93
       13
 44
0.0
173
     0
291
     1
 45
0.0
  0
VISUALSTYLE
  5
751
102
{ACAD_REACTORS
330
74F
102
}
330
74F
100
AcDbVisualStyle
  2
FlatWithEdges
 70
     1
 71
     2
 72
     1
 73
     1
 90
        2
 40
-0.6
 41
30.0
 62
     5
 63
     7
421
 16777215
 74
     1
 91
        4
 64
     7
 65
   257
 75
     1
175
     1
 42
1.0
 92
        0
 66
   257
 43
1.0
 76
     1
 77
     6
 78
     2
 67
     7
 79
     5
170
     0
171
     0
290
     0
174
     0
 93
       13
 44
0.0
173
     0
291
     1
 45
0.0
  0
VISUALSTYLE
  5
752
102
{ACAD_REACTORS
330
74F
102
}
330
74F
100
AcDbVisualStyle
  2
Gouraud
 70
     2
 71
     2
 72
     2
 73
     1
 90
        2
 40
-0.6
 41
30.0
 62
     5
 63
     7
421
 16777215
 74
     0
 91
        4
 64
     7
 65
   257
 75
     1
175
     1
 42
1.0
 92
        0
 66
     7
 43
1.0
 76
     1
 77
     6
 78
     2
 67
     7
 79
     5
170
     0
171
     0
290
     0
174
     0
 93
       13
 44
0.0
173
     0
291
     1
 45
0.0
  0
VISUALSTYLE
  5
753
102
{ACAD_REACTORS
330
74F
102
}
330
74F
100
AcDbVisualStyle
  2
GouraudWithEdges
 70
     3
 71
     2
 72
     2
 73
     1
 90
        2
 40
-0.6
 41
30.0
 62
     5
 63
     7
421
 16777215
 74
     1
 91
        4
 64
     7
 65
   257
 75
     1
175
     1
 42
1.0
 92
        0
 66
   257
 43
1.0
 76
     1
 77
     6
 78
     2
 67
     7
 79
     5
170
     0
171
     0
290
     0
174
     0
 93
       13
 44
0.0
173
     0
291
     1
 45
0.0
  0
VISUALSTYLE
  5
75D
102
{ACAD_REACTORS
330
74F
102
}
330
74F
100
AcDbVisualStyle
  2
Linepattern
 70
    14
 71
     2
 72
     2
 73
     0
 90
        0
 40
-0.6
 41
-30.0
 62
     5
 63
     7
421
 16777215
 74
     1
 91
        4
 64
     7
 65
   257
 75
     7
175
     7
 42
1.0
 92
        8
 66
     7
 43
1.0
 76
     1
 77
     6
 78
     2
 67
     7
 79
     5
170
     0
171
     0
290
     0
174
     0
 93
        1
 44
0.0
173
     0
291
     1
 45
0.0
  0
VISUALSTYLE
  5
759
102
{ACAD_REACTORS
330
74F
102
}
330
74F
100
AcDbVisualStyle
  2
Realistic
 70
     8
 71
     2
 72
     2
 73
     0
 90
        0
 40
-0.6
 41
-30.0
 62
     5
 63
     7
421
 16777215
 74
     1
 91
        0
 64
     7
 65
   257
 75
     1
175
     1
 42
1.0
 92
        8
 66
     8
424
  7895160
 43
1.0
 76
     1
 77
     6
 78
     2
 67
     7
 79
     5
170
     0
171
     0
290
     0
174
     0
 93
       13
 44
0.0
173
     0
291
     0
 45
0.0
  0
VISUALSTYLE
  5
75C
102
{ACAD_REACTORS
330
74F
102
}
330
74F
100
AcDbVisualStyle
  2
Thicken
 70
    13
 71
     2
 72
     2
 73
     0
 90
        0
 40
-0.6
 41
-30.0
 62
     5
 63
     7
421
 16777215
 74
     1
 91
        4
 64
     7
 65
   257
 75
     1
175
     1
 42
1.0
 92
       12
 66
     7
 43
1.0
 76
     1
 77
     6
 78
     2
 67
     7
 79
     5
170
     0
171
     0
290
     0
174
     0
 93
        1
 44
0.0
173
     0
291
     1
 45
0.0
  0
DICTIONARYVAR
  5
78E
102
{ACAD_REACTORS
330
78B
102
}
330
78B
100
DictionaryVariables
280
     0
  1
1:1
  0
DICTIONARYVAR
  5
78D
102
{ACAD_REACTORS
330
78B
102
}
330
78B
100
DictionaryVariables
280
     0
  1
STANDARD
  0
DICTIONARYVAR
  5
78C
102
{ACAD_REACTORS
330
78B
102
}
330
78B
100
DictionaryVariables
280
     0
  1
STANDARD
  0
DICTIONARY
  5
740
330
73F
100
AcDbDictionary
280
     1
281
     1
  3
BUMPTILE
360
742
  3
DIFFUSETILE
360
741
  3
OPACITYTILE
360
745
  3
REFLECTIONTILE
360
744
  3
REFRACTIONTILE
360
746
  3
SPECULARTILE
360
743
  0
DICTIONARY
  5
738
330
737
100
AcDbDictionary
280
     1
281
     1
  3
BUMPTILE
360
73A
  3
DIFFUSETILE
360
739
  3
OPACITYTILE
360
73D
  3
REFLECTIONTILE
360
73C
  3
REFRACTIONTILE
360
73E
  3
SPECULARTILE
360
73B
  0
DICTIONARY
  5
748
330
747
100
AcDbDictionary
280
     1
281
     1
  3
BUMPTILE
360
74A
  3
DIFFUSETILE
360
749
  3
OPACITYTILE
360
74D
  3
REFLECTIONTILE
360
74C
  3
REFRACTIONTILE
360
74E
  3
SPECULARTILE
360
74B
  0
DICTIONARY
  5
788
330
762
100
AcDbDictionary
280
     1
281
     1
  3
ACAD_ROUNDTRIP_2008_TABLESTYLE_CELLSTYLEMAP
360
7A8
  0
XRECORD
  5
742
102
{ACAD_REACTORS
330
740
102
}
330
740
100
AcDbXrecord
280
     1
270
     1
271
     1
  0
XRECORD
  5
741
102
{ACAD_REACTORS
330
740
102
}
330
740
100
AcDbXrecord
280
     1
270
     1
271
     1
  0
XRECORD
  5
745
102
{ACAD_REACTORS
330
740
102
}
330
740
100
AcDbXrecord
280
     1
270
     1
271
     1
  0
XRECORD
  5
744
102
{ACAD_REACTORS
330
740
102
}
330
740
100
AcDbXrecord
280
     1
270
     1
271
     1
  0
XRECORD
  5
746
102
{ACAD_REACTORS
330
740
102
}
330
740
100
AcDbXrecord
280
     1
270
     1
271
     1
  0
XRECORD
  5
743
102
{ACAD_REACTORS
330
740
102
}
330
740
100
AcDbXrecord
280
     1
270
     1
271
     1
  0
XRECORD
  5
73A
102
{ACAD_REACTORS
330
738
102
}
330
738
100
AcDbXrecord
280
     1
270
     1
271
     1
  0
XRECORD
  5
739
102
{ACAD_REACTORS
330
738
102
}
330
738
100
AcDbXrecord
280
     1
270
     1
271
     1
  0
XRECORD
  5
73D
102
{ACAD_REACTORS
330
738
102
}
330
738
100
AcDbXrecord
280
     1
270
     1
271
     1
  0
XRECORD
  5
73C
102
{ACAD_REACTORS
330
738
102
}
330
738
100
AcDbXrecord
280
     1
270
     1
271
     1
  0
XRECORD
  5
73E
102
{ACAD_REACTORS
330
738
102
}
330
738
100
AcDbXrecord
280
     1
270
     1
271
     1
  0
XRECORD
  5
73B
102
{ACAD_REACTORS
330
738
102
}
330
738
100
AcDbXrecord
280
     1
270
     1
271
     1
  0
XRECORD
  5
74A
102
{ACAD_REACTORS
330
748
102
}
330
748
100
AcDbXrecord
280
     1
270
     1
271
     1
  0
XRECORD
  5
749
102
{ACAD_REACTORS
330
748
102
}
330
748
100
AcDbXrecord
280
     1
270
     1
271
     1
  0
XRECORD
  5
74D
102
{ACAD_REACTORS
330
748
102
}
330
748
100
AcDbXrecord
280
     1
270
     1
271
     1
  0
XRECORD
  5
74C
102
{ACAD_REACTORS
330
748
102
}
330
748
100
AcDbXrecord
280
     1
270
     1
271
     1
  0
XRECORD
  5
74E
102
{ACAD_REACTORS
330
748
102
}
330
748
100
AcDbXrecord
280
     1
270
     1
271
     1
  0
XRECORD
  5
74B
102
{ACAD_REACTORS
330
748
102
}
330
748
100
AcDbXrecord
280
     1
270
     1
271
     1
  0
CELLSTYLEMAP
  5
7A8
102
{ACAD_REACTORS
330
788
102
}
330
788
100
AcDbCellStyleMap
 90
        3
300
CELLSTYLE
  1
TABLEFORMAT_BEGIN
 90
        5
170
     1
 91
        0
 92
    32768
 62
   257
 93
        1
300
CONTENTFORMAT
  1
CONTENTFORMAT_BEGIN
 90
        0
 91
        0
 92
      512
 93
        0
300

 40
0.0
140
1.0
 94
        5
 62
     0
340
11
144
6.0
309
CONTENTFORMAT_END
171
     1
301
MARGIN
  1
CELLMARGIN_BEGIN
 40
1.5
 40
1.5
 40
1.5
 40
1.5
 40
0.18
 40
0.18
309
CELLMARGIN_END
 94
        6
 95
        1
302
GRIDFORMAT
  1
GRIDFORMAT_BEGIN
 90
        0
 91
        1
 62
     0
 92
       -2
340
0
 93
        0
 40
1.125
309
GRIDFORMAT_END
 95
        2
302
GRIDFORMAT
  1
GRIDFORMAT_BEGIN
 90
        0
 91
        1
 62
     0
 92
       -2
340
0
 93
        0
 40
1.125
309
GRIDFORMAT_END
 95
        4
302
GRIDFORMAT
  1
GRIDFORMAT_BEGIN
 90
        0
 91
        1
 62
     0
 92
       -2
340
0
 93
        0
 40
1.125
309
GRIDFORMAT_END
 95
        8
302
GRIDFORMAT
  1
GRIDFORMAT_BEGIN
 90
        0
 91
        1
 62
     0
 92
       -2
340
0
 93
        0
 40
1.125
309
GRIDFORMAT_END
 95
       16
302
GRIDFORMAT
  1
GRIDFORMAT_BEGIN
 90
        0
 91
        1
 62
     0
 92
       -2
340
0
 93
        0
 40
1.125
309
GRIDFORMAT_END
 95
       32
302
GRIDFORMAT
  1
GRIDFORMAT_BEGIN
 90
        0
 91
        1
 62
     0
 92
       -2
340
0
 93
        0
 40
1.125
309
GRIDFORMAT_END
309
TABLEFORMAT_END
  1
CELLSTYLE_BEGIN
 90
        1
 91
        1
300
_TITLE
309
CELLSTYLE_END
300
CELLSTYLE
  1
TABLEFORMAT_BEGIN
 90
        5
170
     1
 91
        0
 92
        0
 62
   257
 93
        1
300
CONTENTFORMAT
  1
CONTENTFORMAT_BEGIN
 90
        0
 91
        0
 92
      512
 93
        0
300

 40
0.0
140
1.0
 94
        5
 62
     0
340
11
144
4.5
309
CONTENTFORMAT_END
171
     1
301
MARGIN
  1
CELLMARGIN_BEGIN
 40
1.5
 40
1.5
 40
1.5
 40
1.5
 40
0.18
 40
0.18
309
CELLMARGIN_END
 94
        6
 95
        1
302
GRIDFORMAT
  1
GRIDFORMAT_BEGIN
 90
        0
 91
        1
 62
     0
 92
       -2
340
0
 93
        0
 40
1.125
309
GRIDFORMAT_END
 95
        2
302
GRIDFORMAT
  1
GRIDFORMAT_BEGIN
 90
        0
 91
        1
 62
     0
 92
       -2
340
0
 93
        0
 40
1.125
309
GRIDFORMAT_END
 95
        4
302
GRIDFORMAT
  1
GRIDFORMAT_BEGIN
 90
        0
 91
        1
 62
     0
 92
       -2
340
0
 93
        0
 40
1.125
309
GRIDFORMAT_END
 95
        8
302
GRIDFORMAT
  1
GRIDFORMAT_BEGIN
 90
        0
 91
        1
 62
     0
 92
       -2
340
0
 93
        0
 40
1.125
309
GRIDFORMAT_END
 95
       16
302
GRIDFORMAT
  1
GRIDFORMAT_BEGIN
 90
        0
 91
        1
 62
     0
 92
       -2
340
0
 93
        0
 40
1.125
309
GRIDFORMAT_END
 95
       32
302
GRIDFORMAT
  1
GRIDFORMAT_BEGIN
 90
        0
 91
        1
 62
     0
 92
       -2
340
0
 93
        0
 40
1.125
309
GRIDFORMAT_END
309
TABLEFORMAT_END
  1
CELLSTYLE_BEGIN
 90
        2
 91
        1
300
_HEADER
309
CELLSTYLE_END
300
CELLSTYLE
  1
TABLEFORMAT_BEGIN
 90
        5
170
     1
 91
        0
 92
        0
 62
   257
 93
        1
300
CONTENTFORMAT
  1
CONTENTFORMAT_BEGIN
 90
        0
 91
        0
 92
      512
 93
        0
300

 40
0.0
140
1.0
 94
        2
 62
     0
340
11
144
4.5
309
CONTENTFORMAT_END
171
     1
301
MARGIN
  1
CELLMARGIN_BEGIN
 40
1.5
 40
1.5
 40
1.5
 40
1.5
 40
0.18
 40
0.18
309
CELLMARGIN_END
 94
        6
 95
        1
302
GRIDFORMAT
  1
GRIDFORMAT_BEGIN
 90
        0
 91
        1
 62
     0
 92
       -2
340
0
 93
        0
 40
1.125
309
GRIDFORMAT_END
 95
        2
302
GRIDFORMAT
  1
GRIDFORMAT_BEGIN
 90
        0
 91
        1
 62
     0
 92
       -2
340
0
 93
        0
 40
1.125
309
GRIDFORMAT_END
 95
        4
302
GRIDFORMAT
  1
GRIDFORMAT_BEGIN
 90
        0
 91
        1
 62
     0
 92
       -2
340
0
 93
        0
 40
1.125
309
GRIDFORMAT_END
 95
        8
302
GRIDFORMAT
  1
GRIDFORMAT_BEGIN
 90
        0
 91
        1
 62
     0
 92
       -2
340
0
 93
        0
 40
1.125
309
GRIDFORMAT_END
 95
       16
302
GRIDFORMAT
  1
GRIDFORMAT_BEGIN
 90
        0
 91
        1
 62
     0
 92
       -2
340
0
 93
        0
 40
1.125
309
GRIDFORMAT_END
 95
       32
302
GRIDFORMAT
  1
GRIDFORMAT_BEGIN
 90
        0
 91
        1
 62
     0
 92
       -2
340
0
 93
        0
 40
1.125
309
GRIDFORMAT_END
309
TABLEFORMAT_END
  1
CELLSTYLE_BEGIN
 90
        3
 91
        2
300
_DATA
309
CELLSTYLE_END
  0
ENDSEC
  0
EOF
